» » »

Mighty Mighty Bosstones, Chocolate Pudding Chords (ver.1)

Artists:  A B C D E F G H I J K L M N O P Q R S T U V W X Y Z # 

Chocolate Pudding Chords (ver.1)

Mighty Mighty Bosstones Tabs
Rating:
0/5 (0 votes)
Chocolate Pudding lessons Tabs too difficult? Try these video lessons and learn fast
                


This song is pretty simple. It has a simple ska guitar rhythm to it which makes it very 
The only exception is the second and third chorus riffs

The chords are as follow:

Intro and Verse

   C   G   F


Chorus

   Em   F   G

So you would play it like this:


Intro and Verse

  C              G

||-x-3-x-3-x-3-x-3-x-3-x-3-x-3-x-3-|
||-x-5-x-5-x-5-x-5-x-3-x-3-x-3-x-3-|
||-x-5-x-5-x-5-x-5-x-4-x-4-x-4-x-4-|
||-x-5-x-5-x-5-x-5-x-5-x-5-x-5-x-5-|
||---------------------------------|
||---------------------------------|

  F                         slide up
                                v
|x-1-x-1-x-1-x-1-x-1-x-1-x-1-x-1/3-||
|x-1-x-1-x-1-x-1-x-1-x-1-x-1-x-1/5-||
|x-2-x-2-x-2-x-2-x-2-x-2-x-2-x-2/5-||
|x-3-x-3-x-3-x-3-x-3-x-3-x-3-x-3/5-||
|----------------------------------||
|----------------------------------||

	AND

Chorus

  Em          F          G          G

||-3--x-3===--5--x-5===--7--x-7===--7--x-7===-|
||-5--x-5===--6--x-6===--8--x-8===--8--x-8===-|
||-4--x-4===--5--x-5===--7--x-7===--7--x-7===-|
||--------------------------------------------|
||--------------------------------------------|
||--------------------------------------------|

Or these same chords (Em,F, and G) with a ska rhythm for the 1st chorus only.


There you have it! You gotta love that great taste for only a buck! :D

         ________
	||Legend||____
        |             |
	|x muted note |
	|= let ring   |
	|/ slide up   |
	| \slide down |
         =============
            
Submit corrections

comments powered by Disqus
↑ Back to top | Mighty Mighty Bosstones Chords for Chocolate Pudding. Lyrics for acoustic guitar and electric guitar. Tablatures and chords are parodies/interpretations of the original songs. You may use it for private study, scholarship, research or language learning purposes only