» » »

Mighty Mighty Bosstones, A Man Without Tabs (ver.1)

Artists:  A B C D E F G H I J K L M N O P Q R S T U V W X Y Z # 

A Man Without Tabs (ver.1)

Mighty Mighty Bosstones Tabs
Rating:
0/5 (0 votes)
A Man Without lessons Tabs too difficult? Try these video lessons and learn fast
                

I know this tab is kinda hard to follow, but i did the best that i
could. Just hang in there, just listen to the cd and ill be you
can get it.  The fills are at the bottom just so you dont get lost.
 I love this song, its one of my favorites. Good luck.

------------------------------------------------------------------------------|
--------7-------------7-------888-7---7-----------7---------------------------|
--777-9---9-7h9-777-9---9-7h9-------9---9p7-777-9---9-7h9---------------------|
------------------------------------------------------------------------------|
------------------------------------------------------------------------------|
------------------------------------------------------------------------------|
 GUITAR 1  2x with:

------------------------------------------------------------------------------|
------------------------------------------------------------------------------|
---777777777777777777777777777777777777777777777777777777---------------------|
---777777777777777777777777777777777777777777777777777777---------------------|
---555555555555555555555555555555555555555555555555555555---------------------|
------------------------------------------------------------------------------|
 GUITAR 2  2x

------------------------------------------------------------------------------|
------------------------------------------------------------------------------|
--77777777-6-4--6/7\6\5-4-22--------------------------------------------------|
--77777777-6-4--6/7\6\5-4-22--------------------------------------------------|
--55555555-4-2--4/5\4\3-2-00--------------------------------------------------|
------------------------------------------------------------------------------|
 GUITAR 1 & 2  4x

--55-x-55-x-55-x-55-x-33-x-33-x-55-x-55-55-x-55-x-55-x-55-x-33-x-33-x---------|
--77-x-77-x-55-x-55-x-33-x-33-x-55-x-55-77-x-77-x-55-x-55-x-33-x-33-x---------|
--77-x-77-x-66-x-66-x-44-x-44-x-66-x-66-77-x-77-x-66-x-66-x-44-x-44-x---4h6h7-|
----------------------------------------------------------------------7-------|
------------------------------------------------------------------------------|
------------------------------------------------------------------------------|
 GUITAR 1 & 2

-----4h5-5v-------------------------------------------------------------------|
-5h7--------------------------------------------------------------------------|
-------------77777777-6-4-6/7\6\5-4-22----------------------------------------|
-------------77777777-6-4-6/7\6\5-4-22---5------------------------------------|
-------------55555555-4-2-4/5\4\3-2-00---5------------------------------------|
-----------------------------------------3------------------------------------|


------------------------------------------------------------------------------|
------------------------------------------------------------------------------|
------------------------------------------------------------------------------|
-2-2--------2-2--------2-2----------0---0-------------------------------------|
-2-2--------2-2--------2-2-------0h2-0h2--------------------------------------|
-0-03/5\3\2-0-03/5\3\2-0-03/5\3\2---------3-----------------------------------|
 VERSE GUITAR 1 ONLY  4x

------------------------------------------------------------------------------|
------------------------------------------------------------------------------|
--4-4-4-4-4-4-4-4-4-4-4-4-4-4-4-4-4-4--2-2-2-2-2-2--2-2-2-2-2-2/11v-----------|
--4-4-4-4-4-4-4-4-4-4-4-4-4-4-4-4-4-4--2-2-2-2-2-2--2-2-2-2-2-2---------------|
--2-2-2-2-2-2-2-2-2-2-2-2-2-2-2-2-2-2--0-0-0-0-0-0--0-0-0-0-2-2---------------|
------------------------------------------------------------------------------|
 GUITAR 1 & 2 PALM MUTED

------------------------------------------------------------------------------|
------------------------------------------------------------------------------|
---11---11--11-9---------------------11---11--11/13-12-11-11h12p11-9--11------|
-9----9----9-----12-11-11h12p11-10-9----9----9----------------------9----9----|
------------------------------------------------------------------------------|
------------------------------------------------------------------------------|
 CHORUS GUITAR 1

------------------------------------------------------------------------------|
------------------------------------------------------------------------------|
-11-11-9-------------9--11---11-11/13-12-11-9----9----9----9----9----9--------|
---9-----12-11-11h12--9----9---9--------------99-9-99-9-99-9-99-9-99-9--------|
----------------------------------------------77-7-77-7-77-7-77-7-77-7--------|
------------------------------------------------------------------------------|
                      guitar 2 joins in > > > PM   PM   PM   PM   PM

------------------------------------------------------------------------------|
------------------------------------------------------------------------------|
-------------------9-7-5-7---8\7-99-7x99-7x-8-7-5/7--9-7-5-7---8\7--99-7x-----|
-------------------9-7-5-7-x-8\7-99-7x99-5x-8-7-5/7--9-7-5-7-x-8\7--99-7x-----|
-------2-----------7-5-3-5-x-6\5-77-5x77-5x-6-5-3/5--7-5-3-5-x-6\5--77-7x-----|
-0h3-5---5-3-2-3h5------------------------------------------------------------|
                                                                   (-w/ fill

-------------------------------------------------------------------------------|
-------------------------------------------------------------------------------|
-99-7x-8-7-5/7---9-7-5-7---8\7--99-7x-99--7x--8-7-5/7--9-7-5-7-555-777---------|
-99-7x-8-7-5/7---9-7-5-7-x-8\7--99-7x-99--7x--8-7-5/7--9-7-5-7-555-777---------|
-77-5x-6-5-3/5---7-5-3-5-x-8\7--77-5x-77--5x--6-5-3/5--7-5-3-5-333-555---------|
-------------------------------------------------------------------------------|
 1----)                        (-w/ fill 2-------------------------------------|

------------------------------------------------------------------------------|
--7--6--55-6------------------------------------------------------------------|
-7--6--5--6-------------------------------------------------------------------|
------------------------------------------------------------------------------|
------------------------------------------------------------------------------|
------------------------------------------------------------------------------|
 GUITAR 1 ONLY clean tone  4x

------------------------------------------------------------------------------|
------------------------------------------------------------------------------|
--99-99-9-999-9-9-99-9--------------------------------------------------------|
--99-99-9-999-9-9-99-9--------------------------------------------------------|
--77-77-7-777-7-7-77-7--------------------------------------------------------|
------------------------------------------------------------------------------|
 GUITAR 1 (back to the heavy distortion and palm muted at certian parts) 4x

------------------------------------------------------------------------------|
------------------------------------------------------------------------------|
------------------------------------------------------------------------------|
-2-2--------2-2--------2-2------------0----0----------------------------------|
-2-2--------2-2--------2-2---------0h2--0h2-----------------------------------|
-0-03/5\3\2-0-03/5\3\2-0-0-3/5\3\2-----------3--------------------------------|
 GUITAR 1 ONLY 4x

-55-x-55-x-55-x-55-x-33-x-33-x-55-x-55----------------------------------------|
-77-x-77-x-55-x-55-x-33-x-33-x-55-x-55----------------------------------------|
-77-x-77-x-66-x-66-x-44-x-44-x-66-x-66----------------------------------------|
------------------------------------------------------------------------------|
------------------------------------------------------------------------------|
------------------------------------------------------------------------------|
 LAST CHORUS do this till the song fades out

-----------------|------------------------------------------------------------|
-15b-15b---------|-15b-15b-15-12----------------------------------------------|
-----------------|---------------12-------------------------------------------|
-----------------|------------------------------------------------------------|
-----------------|------------------------------------------------------------|
-----------------|------------------------------------------------------------|
 GUITAR 2 fill 1   GUITAR 2 fill 2
            
Submit corrections

comments powered by Disqus
↑ Back to top | Mighty Mighty Bosstones Tabs for A Man Without. Lyrics for acoustic guitar and electric guitar. Tablatures and chords are parodies/interpretations of the original songs. You may use it for private study, scholarship, research or language learning purposes only