» » »

Mick Thompson, Hammer-Ons With Slides Tabs (ver.1)

Artists:  A B C D E F G H I J K L M N O P Q R S T U V W X Y Z # 

Hammer-Ons With Slides Tabs (ver.1)

Mick Thompson Tabs
Rating:
0/5 (0 votes)
Hammer-Ons With Slides lessons Tabs too difficult? Try these video lessons and learn fast
                This mick thompson's riffs and warm ups from Total Guitar, Issuse 95, 
i would to share these with everyone

-----------------------------------9h10--9h10/14\10--9h10p9------9------------
-----------------------9h10--9h10----------------------------12----12p10------
-----------7h12--7h12---------------------------------------------------------
-5h8--5h8---------------------------------------------------------------------
 |--------------------------------------------------------------------------- 

-12p10p9--10p9-------10--10v----9h10p9------9--9v------\7---6-----------------
----------------12----------------------12---------------------7--11h12---12v-
 --------X4-------|
            

comments powered by Disqus
↑ Back to top | Mick Thompson Tabs for Hammer-Ons With Slides. Lyrics for acoustic guitar and electric guitar. Tablatures and chords are parodies/interpretations of the original songs. You may use it for private study, scholarship, research or language learning purposes only