» » »

Extended Neoclassical Arpeggio Tabs (ver.1)

Artists:  A B C D E F G H I J K L M N O P Q R S T U V W X Y Z # 

Extended Neoclassical Arpeggio Tabs (ver.1)

Mick Thompson
Rating:
0/5 (0 votes)

Tabs too difficult? Try these video lessons and learn fast.
                This mick thompson's riffs and warm ups from Total Guitar, Issuse 95, 
i would to share these with everyone

------------------------3---7/12---7--------------7--12p7h12p7h12p7-----------
---------------------5----------------8---------8-------------------8---------
------------------4----------------------9v---9-----------------------9v------
-----------2---5--------------------------------------------------------------
-------2----------------------------------------------------------------------
-0h3--------------------------------------------------------------------------
                                                                              

----------------------3-7/12---7----------------------------------------------
-------------------5--------------8-------------------------------------------
----------------4---------------------9v--------------------------------------
---------2---5----------------------------------------------------------------
------2-----------------------------------------------------------------------
-0h3--------------------------------------------------------------------------
            
Tabs too difficult? Try these video lessons and learn fast.




comments powered by Disqus
↑ Back to top | Tablatures and chords are parodies/interpretations of the original songs. You may use it for private study, scholarship, research or language learning purposes only