» » »

Double-4s Warm-Up Tabs (ver.1)

Artists:  A B C D E F G H I J K L M N O P Q R S T U V W X Y Z # 

Double-4s Warm-Up Tabs (ver.1)

Mick Thompson
Rating:
0/5 (0 votes)

Hard to play? Try these video lessons and learn fast.
                This mick thompson's riffs and warm ups from Total Guitar, Issuse 95, 
i would to share these with everyone

------------------------------------------------1--2--3--4--5--6--7--8--------
-------------------------1--2--3--4--5--6--7--8-------------------------------
-1--2--3--4--5--6--7--8-------------------------------------------------------
                                                                              

------------------------------------------1--2--2--3--4--5--6--7--8-----------
------------------1--2--3--4--5--6--7---8---------------------------5--6--7---
-3--4--5--6--7--8-------------------------------------------------------------
                                                                              

-8--1--2--3--4----------------------------------------------------------------
----------------5--6--7--8--1--2--3--4----------------------------------------
            
Hard to play? Try these video lessons and learn fast. | Correct




comments powered by Disqus
↑ Back to top | Tablatures and chords are parodies/interpretations of the original songs. You may use it for private study, scholarship, research or language learning purposes only