» » »

Dimished Arpeggios With Taps Tabs (ver.1)

Artists:  A B C D E F G H I J K L M N O P Q R S T U V W X Y Z # 

Dimished Arpeggios With Taps Tabs (ver.1)

Mick Thompson
Rating:
0/5 (0 votes)

Tabs too difficult? Try these video lessons and learn fast.
                This mick thompson's riffs and warm ups from Total Guitar, Issuse 95, 
i would to share these with everyone

----------12-----------------12----------------12----------------12h15--------
-------14----14-----------14----14----------14----14----------14--------------
-12h15----------15--12h15----------15-12h15----------15-12h15-----------------
                                                                              

-t18p15p12----------------12----------12h15-t18p15p12----------------12-------
-----------14----------14----14----14-----------------14----------14----14----
--------------15-12h15----------15-----------------------15-12h15-------------
                                                                              

-------12h15-t18p15p12----------------12---------------12h15h18-t21p18p15p12--
----14-----------------14----------14----14---------14------------------------
-15-----------------------15-12h15----------15-12h5---------------------------
                                                                              

----------------12----------12-15-18-t21/24\21p18p15p12----------------12-----
-14----------14----14----14-----------------------------14----------14----14--
----15-12h15----------15-----------------------------------15-12h15-----------
                                                                              

-------------12---------------------------------------------------------------
----------14------------------------------------------------------------------
-15-12h15---------------------------------------------------------------------
            
Tabs too difficult? Try these video lessons and learn fast.




comments powered by Disqus
↑ Back to top | Tablatures and chords are parodies/interpretations of the original songs. You may use it for private study, scholarship, research or language learning purposes only