» » »

I Wanna Be Loved Bass tabs (ver.1)

Artists:  A B C D E F G H I J K L M N O P Q R S T U V W X Y Z # 

I Wanna Be Loved Bass tabs (ver.1)

Michael Monroe
Rating:
0/5 (0 votes)

Hard to play? Try these video lessons and learn fast.
                Intro
G|--------------------------|
D|--------------------------|
A|--------------------------|
E|---3--3---1--1---3--------|

  Verse:
G|--------------------------|
D|--------------------------|
A|--------------------------|
E|---3--3---1--1---3--------|

  Chorus:
G|--------------------------------|
D|--------------------------------|
A|---3--3--3--3----------------5--|
E|----------------3--3--3--3------|

Solo:
G|--------------------------------|
D|--------------------------------|
A|---3--3--3--3----------------5--|
E|----------------3--3--3--3------|
            
Hard to play? Try these video lessons and learn fast. | Correct




comments powered by Disqus
↑ Back to top | Tablatures and chords are parodies/interpretations of the original songs. You may use it for private study, scholarship, research or language learning purposes only