>
 >
Nothing To Lose

Nothing To Lose Guitar Tabs

Michael Learns To Rock - Nothing To Lose chords, tabs, tablatures, lyrics

Guitar lessons | Add/correct | Request | Top 50 tabs Artists:  A B C D E F G H I J K L M N O P Q R S T U V W X Y Z 0-9

Nothing To Lose Guitar Tabs – Michael Learns To Rock

CD, Sheet music, Poster

Do you like Nothing To Lose? Share with your friends now
ChordsChords v2Chords v3TabsUkulele
||album||nothing to lose||
||TabbedBy|levonlopez||
||song||noThing to lose||
||Artist||Michael Learns To rock||



 |IntrO:| |guitar|
E|---------------------------------|
A|---------------------------------|
D|------------------------0~-------|
G|------2-----------4-----(3)------|
B|---------3-----5-----(5)-3-------|
e|--2~--------2--------5-----------|

E|---------------------------------|
A|-----------0~------------0~------|
D|-----------------------------0~--|
G|--2--------3-----4---3---2---2---|
B|-----3-----2---------3---2---1---|
e|--------2-----2----------0-------|

    A    E   C       D
E|--0~---2---3~------5~------------|
A|---------------------------------|
D|---------------------------------|
G|--2----4---0~------7~~-----------|
B|--2----3---1~------7~~-----------|
e|---------------------------------|

                         {C#m|
E|-----------------------------------------|
A|--0~-----------------------4~-----4~-----|
D|------2-----2-------2---------6------4---|
G|---------2------2-------2-------6------6-|
B|---------2------2-------2-------5------7-|
e|-----------------------------------------|
    There are times when you  make me laugh

          {Bm
E|-----------------------------------------|
A|------------2~---------------------------|
D|----------------4----4-----4-----4-------|
G|-------------------4----4-----4-----4----|
B|-------------------3----3-----3-----3----|
e|-----------------------------------------|
    there are moments when you drive me

   E                     A   |2x}     {1x}
E|-----------------------------------------|
A|-2v--------------------2~----------------|
D|-----2----2-----------------2------------|
G|--------1---------1------------2-------2-|
B|--------0-------0--------------2-----2---|
e|-------------1~--------------------0-----|
   mad         there are seconds when

E|--------------------------------------|
A|--4~-------4~-----------2v------------|
D|------6-------4~------------4-----4---|
G|---------6-------6------------4-------|
B|---------5-------7------------3-------|
e|--------------------------------------|
    I seE the light though many time you
             e
E|----------------------------------------|
A|-----------2~---------------------------|
D|---------------2----2-------------------|
g|------4-----------1---1~----------------|
B|---------3--------0---0~----------------|
e|---2------------------------------------|
     made me cry

E|-----------------------------------------|
A|--5~-------------------4~-----4~---------|
D|-----5~----5---5---5------6------4~------|
G|---------3---3---3---3------6--------6---|
B|---------3---3---3---3------5--------7---|
e|-----------------------------------------|
    there's something you don't understands

E|-----------------------------------------|
A|--2~-----------------2~------------------|
D|-----4~----4---4--------2~---2~----------|
g|---------4---4---4---------1-----1-------|
b|---------3---3---3---------0-----0-------|
e|---------------------------------0-------|
  I want to be your    man....

 |chorus|
 |--0-----0-0---0---4-4--4---4--4-4--4---4-|
 |--0-----0-0---0---4-4--4---4--4-4--4---4-|
 |--2-----2-2---2---6-6--6---6--4-4--4---4-|
 |--2-----2-2---2---6-6--6---6--6-6--6---6-|
 |--2-----2-2---2---5-5--5---5--7-7--7---7-|
 |--0-----0-0---0---4-4--4---4--4-4--4---4-|
    Nothing to lose your love to win

   Bm       Bm7        E
 |-2--2--2---2---2-2-0--0-0--0---0-0------|
 |-2--2--2---2---2-2-2--2-2--2---2-2------|
 |-4--4--4---4---4-4-2--2-2--2---2-2------|
 |-4--4--4---4---4-4-1--1-1--1---1-1------|
 |-3--3--3---3---3-3-0--0-0--0---0-0------|
 |-2--2--2---2---2-2-0--0-0--0---0-0------|
   hoping so bad let you'll let me in

 |-0--0----0-0--0--4-4---4-4--4-4-4--4-----|
 |-0--0----0-0--0--4-4---4-4--4-4-4--4-----|
 |-2--2----2-2--2--6-6---6-6--4-4-4--4-----|
 |-2--2----2-2--2--6-6---6-6--6-6-6--6-----|
 |-2--2----2-2--2--5-5---5-5--7-7-7--7-----|
 |-0--0----0-0--0--4-4---4-4--4-4-4--4-----|
  i'm at your feet waiting for you

                       B6
 |-4---4----2-2-2-2-3-3--3-3-3-3--0-0----0--|
 |-4---4----4-4-4-2-5-5--5-5-5-5--2-2----2--|
 |-4---4----4-4-4-4-5-5--5-5-5-5--2-2----2--|
 |-6---6----2-2-2-4-5-5--5-5-5-5--1-1----0--|
 |-7---7----2-2-2-2-5-5--5-5-5-5--0-0----0--|
 |-4---4----2-2-2-2-5-5--5-5-5-5--0-0----0--|
   I've got time and nothing to   lose

 |VeRse 2:|
 |--0---0---0------0--0--0-4--4--4-4-4-4--4--|
 |--0---0---0------0--0--0-4--4--4-4-4-4--4--|
 |--2---2---2------2--2--2-6--6--6-6-4-4--4--|
 |--2---2---2------2--2--2-6--6--6-6-5-5--5--|
 |--2---2---2------2--2--2-5--5--5-6-6-6--6--|
 |--0---0---0------0--0--0-4--4--4-4-4-4--4--|
    there  are time when i believe in you

 |--2--2--2----2---2--2--2------2--2---2--0-0-|
 |--2--2--2----2---2--2--2------2--2---2--2-2-|
 |--4--4--4----4---4--4--4------4--4---4--2-2-|
 |--4--4--4----4---4--4--4------4--4---4--1-1-|
 |--3--3--3----3---3--3--3------3--3---3--0-0-|
 |--2--2--2----2---2--2--2------2--2---2--0-0-|
   there are moments when i feel close to you

 |-0--0---0---0--0--0--0-4--4----4--4-4---4--|
 |-0--0---0---0--0--0--0-4--4----4--4-4---4--|
 |-2--2---2---2--2--2--2-6--6----6--4-4---4--|
 |-2--2---2---2--2--2--2-6--6----6--6-6---6--|
 |-2--2---2---2--2--2--2-5--5----5--7-7---7--|
 |-0--0---0---0--0--0--0-4--4----4--4-4---4--|
   therE are time i think that i am yours

                 Bm
 |-4-4---2-2--2------2---2-2-0-0---0----|
 |-4-4---2-2--2------2---2-2-2-2---2----|
 |-4-4---4-4--4------4---4-4-2-2---2----|
 |-6-6---4-4--4------4---4-4-1-1---1----|
 |-7-7---3-3--3------3---3-3-0-0---0----|
 |-4-4---2-2--2------2---2-2-0-0---0----|
   though many times i feel  unsure

 |-3--3--3--3----3--3--4-4-4-4-4--4---4-4--|
 |-5--5--5--5----5--5--4-4-4-4-4--4---4-4--|
 |-5--5--5--5----5--5--6-6-6-4-4--4---4-4--|
 |-3--3--3--3----3--3--6-6-6-6-6--6---6-6--|
 |-3--3--3--3----3--3--5-5-5-7-7--7---7-7--|
 |-3--3--3--3----3--3--4-4-4-4-4--4---4-4--|
   there something you don't understand

 |--4--2-2---2-2--2--2-----0-0-------------|
 |--4--2-2---2-2--2--2-----2-2-------------|
 |--4--4-4---4-4--4--4-----2-2-------------|
 |--6--4-4---4-4--4--4-----1-1-------------|
 |--7--3-3---3-3--3--3-----0-0-------------|
 |--4--2-2---2-2--2--2-----0-0-------------|
     I want to be your     man...

 | repeat|Chorus |

    D     E       A
 |-0-0---0-0--0-0-0-0--0--0---0--|
 |-0-0---2-2--2-2-0-0--0--0---0--|
 |-0-0---2-2--2-2-2-2--2--2---2--|
 |-2-2---1-1--1-1-2-2--2--2---2--|
 |-3-3---0-0--0-0-2-2--2--2---2--|
 |-2-2---0-0--0-0-0-0--0--0---0--|
   I'll always be around you..

   Bm      E       A          A
 |-2-2--2--0-0--0--0----0--0----0--0--0---0--|
 |-2-2--2--2-2--2--0----0--0----0--0--0---0--|
 |-4-4--4--2-2--2--2----2--2----2--2--2---2--|
 |-4-4--4--1-1--1--2----2--2----2--2--2---2--|
 |-3-3--3--0-0--0--2----2--2----2--2--2---2--|
 |-2-2--2--0-0--0--0----0--0----0--0--0---0--|
   keep in eye on  you
                   (always keep in eye on you}

 |--------0-0--0--0-0--0-0--0-----|
 |--------0-0--0--0-0--2-2--2-----|
 |--------0-0--0--0-0--2-2--2-----|
 |--------2-2--2--2-2--1-1--1-----|
 |--------3-3--3--3-3--0-0--0-----|
 |--------2-2--2--2-2--0-0--0-----|
    cOs my patience is strong

 |--0--0--0--0--0--0--0--0-0--0-----|
 |--2--2--0--0--0--0--0--0-0--0-----|
 |--2--2--2--2--2--2--2--0-0--0-----|
 |--1--1--2--2--2--2--2--2-2--2-----|
 |--0--0--2--2--2--2--2--3-3--3-----|
 |--0--0--0--0--0--0--0--2-2--2-----|
    and i won't let  you run

        Bm-Bm7
 |-0----2--2----2--2--2-0-0--0-----0--------|
 |-0----2--2----2--2--2-2-2--2-----2--------|
 |-0----4--4----4--4--4-2-2--2-----2--------|
 |-2----4--4----4--4--4-1-1--1-----1--------|
 |-3----3--3----3--3--3-0-0--0-----0--------|
 |-2----2--2----2--2--2-0-0--0-----0--------|
   you are the o.n...ly one
               {your are the one only one...)

 |-0--0--0----0--0-4--4--4--4-4-4-4--4-------|
 |-0--0--0----0--0-4--4--4--4-4-4-4--4-------|
 |-2--2--2----2--2-6--6--6--6-6-4-4--4-------|
 |-2--2--2----2--2-6--6--6--6-6-6-6--6-------|
 |-2--2--2----2--2-5--5--5--5-5-7-7--7-------|
 |-0--0--0----0--0-4--4--4--4-4-4-4--4-------|
   noThing to lose your love to win

 |--2-2--2-2-2-2---2-2-0--0--0-0-0---0-------|
 |--2-2--2-2-2-2---2-2-2--2--2-2-2---2-------|
 |--4-4--4-4-4-4---4-4-2--2--2-2-2---2-------|
 |--4-4--4-4-2-2---4-4-1--1--1-1-1---1-------|
 |--3-3--3-3-3-3---3-3-0--0--0-0-0---3-------|
 |--2-2--2-2-2-2---2-2-0--0--0-0-0---0-------|
    hoping so bad that you'll let me in

 |--0--0--0--0--0--0-4-4-4-4-4-4-4--4-4-4-4--|
 |--0--0--0--0--0--0-4-4-4-4-4-4-4--4-4-4-4--|
 |--2--2--2--2--2--2-6-6-6-6-6-6-4--4-4-4-4--|
 |--2--2--2--2--2--2-6-6-6-6-6-6-6--6-6-6-6--|
 |--2--2--2--2--2--2-5-5-5-5-5-5-7--7-7-7-7--|
 |--0--0--0--0--0--0-4-4-4-4-4-4-4--4-4-4-4--|
    I'm at your feet waiting for you

 |--4-4-4---3-3--3-3---3-3-3--3-3--0-0--0----|
 |--4-4-4---5-5--5-5---5-5-5--5-5--2-2--2----|
 |--4-4-4---5-5--5-5---5-5-5--5-5--2-2--2----|
 |--6-6-6---3-3--5-5---5-5-5--5-5--1-1--1----|
 |--7-7-7---3-3--3-3---5-5-5--5-5--0-0--3----|
 |--4-4-4---3-3--3-3---5-5-5--5-5--0-0--0----|
   I've got time and   nothing to  lose.

 |---0--0--0--0--0R---4--4--4----------------|
 |---0--0--0--0-------4--4--4----------------|
 |---0--0--0--0-------4--4--4----------------|
 |---2--2--2--2-------6--6--6----------------|
 |---3--3--3--3-------7--7--7----------------|
 |---2--2--2--2-------4--4--4----------------|
    O.O...yEah

 |----------3--3--3-3-3-3--3-3---0-----------|
 |----------5--5--5-5-5-5--5-5---2-----------|
 |----------5--5--5-5-5-5--5-5---2-----------|
 |----------3--3--3-3-5-5--5-5---1-----------|
 |----------3--3--3-3-5-5--5-5---0-----------|
 |----------3--3--3-3-5-5--5-5---0-----------|
   i've got time aNd noThing to. lose...

 |-------------------------------------------|
 |-------------------------------------------|
 |--0---------------------0~~----------------|
 |-----2-----------(6)-----------------------|
 |--------3-----5---------3~~-2~-3~~---------|
 |--2--------2---------5---------------------|


 |-------------------------0vv---------------|
 |-------------------------0vv---------------|
 |-------------------------0vv---------------|
 |----4---4---4---4--4--2--2vv---------------|
 |--5---------5---4--3--2--3vv---------------|
 |------------4------------2vv---------------|





Comments


Popular Michael Learns To Rock tabs & chords
Actor Chords
Breaking My Heart Chords
Forever & A Day Chords
It's Gonna Make Sense 1 Chords
Love Will Never Lie 2 Chords
Its Gonna Make Sense Intro 1 Tabs
Paint My Love Tabs
Take Me To Your Heart 1 Tabs
Thats Why Intro Tabs
Any Way You Want It Ukulele


Song lyrics



↑ Back to top | Tablatures and chords are parodies/interpretations of the original songs. You may use it for private study, scholarship, research or language learning purposes only
© 2014 AZChords.com Contact us | Privacy policy | DMCA | Add/correct tabs | Request tabs | Top 50 tabs