» » »

Michael Johnson, And Ill Always Love You Tabs (ver.6)

Artists:  A B C D E F G H I J K L M N O P Q R S T U V W X Y Z # 

And Ill Always Love You Tabs (ver.6)

Michael Johnson Tabs
 Rating:
4/5 (4 votes)
And Ill Always Love You lessons Tabs too difficult? Try these video lessons and learn fast
                "(3)
ILL ALWAYS LOVE YOU (acoustic version)
MICHAEL JOHNSON


intro chord patern:
A-F#m/C-D-Bm7 (2X)

      A     F#m/C  D     Bm
e-|-------------2----------------|
B-|------5------------3-----3----|
G-|-----2-----2------2-----2-----|    this will be repeated twice..
D-|----2-----4------4-----4------|
A-|---0-----3------5-----2-------|
E-|------------------------------|


then comes the verse part.


A        F#m/C   D
standing by  my  window                      A(*1)
Bm        E         A(*1)                -|-------------------|
listening for your call                  -|-----------2h3h2---|
                                         -|--------2h4--------|
                                         -|-----2-------------|
                                         -|--0----------------|
                                         -|-------------------|

DM7            E               E/D(*2) D  A(*1)
seems i really miss you afterall

    E/D(*2)                 D                      A(1*)
       ^                    ^
-|-----4-(strum upward--)---3-(strum upward)-----------------------|
-|-----5--------------------2-----------------------------2h3h2----|
-|---4----------------------3-------------------------2h4----------|
-|--0---------------------0--------------------------2-------------|
-|-------------------------------------------------0---------------|
-|-----------------------------------------------------------------|


F         C       Bm              E       A7(sus)
time wont let me, decide thoughts to myself..
DM7            Cm#7       F#m
i just want to let you know
Bm         Bm7   Bm       E
i wished i never let you go..


CHORUS

AM7   F#m7       Bm7
  and ill always love you

     E                D  ^     A  ^   F#m       E
  -|-------0-------------2--------0------------------4--------|
  -|----------0----------3--------2-----------------5-5-5-----|
  -|------------1------2----------2----------------4---4------|
  -|------------------0---------2--------4s6-7----6-----------|
  -|--2------------------------0-------4---------7------------|
  -|-0--------------------------------2-----------------------|
     deep inside this heart of mine i do.........love you

AM7    F#m7       Bm7
   and ill always need you

     E               Faug7              F#m7     D   Bm      E
  -|---0-------------------------4----------5-4--2-----2------0---|
  -|------0----0--------3--------3----------------3-----3------0--|
  -|--------------1--------4-----4-----------------2--------------| do intro
  -|---------2--------3----------3---------------0----4-----------| chords
  -|--2-----------------------------------4----------2------------| pattern
  -|-0----------------------------------2--------------------0----|
     and if you ever change your mind i still......i will....love you

intro chords pattern (twice)

do same chords on first verse on verse 2..

then repeat chorus..

* just listen to the acoustic version and try to focus on the
  plucking pattern done on each lyrics.
* i didnt put the refrain part on this one, im tired and i already forgot
  the chords..just try to look it up on the other tabs guys..


  hope you guys liked this one..

  i actually serenade a girl with this song and guess what??
  im married with her now!!
"            
Submit corrections

comments powered by Disqus
↑ Back to top | Michael Johnson Tabs for And Ill Always Love You. Lyrics for acoustic guitar and electric guitar. Tablatures and chords are parodies/interpretations of the original songs. You may use it for private study, scholarship, research or language learning purposes only