>
 >
I'll Always Love You 1

I'll Always Love You 1 Guitar Tabs

Michael Johnson - I'll Always Love You 1 chords, tabs, tablatures, lyrics

Guitar lessons | Add/correct | Request | Top 50 tabs Artists:  A B C D E F G H I J K L M N O P Q R S T U V W X Y Z 0-9

I'll Always Love You 1 Guitar Tabs – Michael Johnson

CD, Sheet music, Poster

Do you like I'll Always Love You 1? Share with your friends now
ChordsChords v2TabsTabs v2Tabs v3
I’ll always love you – Michael Johnson
Tabbeb by Glen Alarcon  |<><>| 

I think this is the most accurate tab for this song.. It is 95% correct……
Turo lang saken to ng kaibigan kong magaling mag gitara (acoustic)
Hope you’ll like it !
Rate this plsss…………..
         A9	         C/A7	D	B9
e:|--------0----------2----------------------------------|
B:|-----------------------------3----------2-------------|
G:|------2---------2----------2----------2---------------|	2x
D:|----2---------5----------4---------4------------------|
A:|--0---------3----------5---------2--------------------|
E:| -----------------------------------------------------|

      A9		C/A7		D	      Bm7		E7
|---------0------------2------------------------------------------4-------------------
|--------------------------------------3------------2h3---------3-------3-------------
|------2------------2---------------2---------------2---------4-------4---4-----------
|----2------------5---------------4--------------4----------2----------------------------
|--0------------3---------------5--------------5----2-------------------------------------
|---------------------------------------------------------------------------------------------------
          Standin        by    my   window                  listenin’ for your

         A6		  Dm7	    Daug/E			     A6	
|-------------------2-------------2-------------------------------------------0---------
|----------2h3-2----2-----------3---3-------------------9--------7----------2---2-------
|-------2h4---------2---------1-------1-----------------9--------7----------------------
|----2--------------0-------2-------------------5/7-----9--------7-------2--------------
|-0------------------------------------------0--------------0----------0----------------
|---------------------------------------------------------------------------------------
    call          seems    I   really     miss   you    after          all	

         F		C9		Bm7	   Eaug		A	Bm7
|--------------------0---------------------------------------------2--------
|------1-3-1-------3---3-----------3---------3----------2h3-2------2--------
|----2-------------------0-----------2------1-1---------2h4-2------2--------
|----------------2----------2----4--------------------2------------0--------
|--------------3---------------2-------------------0------------------------
|-1---------------------------------------0---------------------------------
   Time  won’t  let  me  keep    these   sad thoughts for you..I just like to 

      C#m7	F#m7	Bm7 	  Bm7/A	          Bm7/E	Daug/E
|-------------------------------------------------------------------------2---------------
|------5-----------------2------3--------------3-----------3------------3-------3---------
|--------4-------------2----------2----------2---2-------2---2--------1-------1---1-------
|----6------------------------4------------4-----------4-------------2--------------------
|--4------------(2)h4-------2------------0------------------------------------------------
|--------------2--------------------------------------------------------------------------
   Let     you      know     I     wish    id    never    let  you   go

Chorus:
       A	        F#m	Bm	       Bm7        E		   D
|-------------------------------------------------------------0------------0h2------------
|--------2-------------2---------------3-------2h3--------0-----------0----3------3-------
|------2-------------2-----------4-------------2--------1--1---------1--------------2-----
|----2-------------4-----------4---4-----4--------------------------2------0--------------
|--0-------------------------2-----------------2------------------------------------------
|---------------2--------------------------------------0----------------------------------
     And   I’ll    always     love      you                         Deep  inside  this     heart   of

   A     CM7/G#       F#m			E
|--0-----0---------------2-------------------------4--------------------------
|--2-----0-0-----------2-------2-------------5------5---4---------------------
|--2-----0-----------2-------2---2---------4---5------4-----------------------
|-----------------------------------------------------------------------------
|--0--------------------------------------------------------------------------
|---------4-------2-----------------------0-----------------------------------
    Mine I                   do….             Love  you

        A		F#m		Bm		E		Db/F
|----------0--------------2---------------2--------------------0-----------------0------
|-------2---------------2-----------3------3---3-------------0---0-------------2---2-----
|-----2---------------2-----------4---4------4-------------1-----------------1--------1--
|---------------------------------------------------------2---------------------------------
|--0----------------------------2--------------------------------------2------------------
|------------------2------------------------------------0----------------0-1--------------
    And   ill    always      need you             and if you ever change your mind I still

          F#m    D	       A/b           A         E
|--------2-0-----------------0----------0-------------|
|--------2------3---------3---------2---------0-------|
|-----2-----------------------------------------------|  Back to intro…
|---------------0------------------------------------|
|-------------------------2---------0----------------|
|--2------------------------------------------0-----|
	       I will……….				     Love you……	


>>Do the verse tab then  go to bridge

BRIDGE:

  Eb              G                 Am               D
|---------3---------------3-------|-------0-0--------------0h3-2-0--|
|-----4-------4---------0---0-----|-------1-1------------3----------|
|---3---3---3---3-----2-------2---|-----0-----0--------2------------|
|-1-----------------0-----------0-|---2---------2----0--------------|
|---------------------------------|-0-------------------------------|
|-----------------3---------------|---------------------------------|
  Time like a    river keeps on    rolling right on by

  Em              Bm              Am7              D
|---------0--------2-3-2---------|---------0------------------------|
|---0-----0------------------3---|-----0h1---0-----------0----------|
|-0---0---0--------------------2-|---------------------1------------|
|--------------------------4-----|---2---------------2--------------|
|------------------------2-------|-0---------------0----------------|
|--------------------------------|----------------------------------|
  Nothing left for me to do   so I watch the river rise

>>Repeat chorus



Rate this pls!


Lyrics:

Ill always love you – Michael Johnson

Standin' by my window
Listenin' for your call
seems i really miss you after all
time won't let me keep these 
sad thoughts to myself
i'd just like to let you know, 
i wish i'd never let you go

Chorus:
and i'll always love you deep inside this heart of mine i do
love you and i'll always need you
and if you ever change your mind, i'll still, i will love you

wish you never left me but love's a mystery
you can break a heart so easily
the days and nights we've knew how much i feel for you
time has come for me to see how much your love has meant to me

Bridge:
time like a river keeps on rolling right on by
nothing left for me to do so i watch the river rise
and i'll always love you but deep inside this heart of mine i do
love you and i'll always need you
and if you ever change your mind i'll still, i will
i still, i will love you.





Comments


Popular Michael Johnson tabs & chords
Bluer Than Blue Chords
Give Me Wings Chords
Give Me Wings ( If You Love Me ) Chords
I'll Always Love You Chords
This Night Wont Last Forever 1 Chords
And Ill Always Love You Tabs
I Ll Always Love You Tabs
I'll Always Love You Tabs
Bluer Than Blue Ukulele
Han Gar Aldrig Forbi Dig Ukulele


Song lyrics



↑ Back to top | Tablatures and chords are parodies/interpretations of the original songs. You may use it for private study, scholarship, research or language learning purposes only
© 2014 AZChords.com Contact us | Privacy policy | DMCA | Add/correct tabs | Request tabs | Top 50 tabs