>
 >
I'll Always Love You

I'll Always Love You Guitar Tabs

Michael Johnson - I'll Always Love You chords, tabs, tablatures, lyrics

Guitar lessons | Add/correct | Request | Top 50 tabs Artists:  A B C D E F G H I J K L M N O P Q R S T U V W X Y Z 0-9

I'll Always Love You Guitar Tabs – Michael Johnson

CD, Sheet music, Poster

Do you like I'll Always Love You? Share with your friends now
ChordsChords v2TabsTabs v2Tabs v3

Acoustic Version:

Intro :(optional with capo on first fret)


E|------------------------------0-----------------------------------|
B|--------------3-------------------------------1---------------0---|
G|----------0---------------0---------------0---------------0-------|
D|------0---------------3---------------2---------------2-----------|
A|------------------1---------------3---------------0---------------|
E|--3---------------------------------------------------------------|

E|------------------------------0-----------------------------------|
B|--------------3-------------------------------1---------------0---|
G|----------0---------------0---------------0---------------0-------|
D|------0---------------3---------------2---------------2-----------|
A|------------------1---------------3---------------0---------------|
E|--3---------------------------------------------------------------|



I.Verse:

E|------------------------------0-----------------------------------|
B|--------------3-------------------------------1-----------0-h-1---|
G|----------0---------------0---------------0-----------0---0-------|
D|------0---------------3---------------2-------------------2-------|
A|------------------1---------------3---------------3---------------|
E|--3---------------------------------------------------------------|


E|------------------------------------------------------------------|
B|----------1---------------1-------------------0h1-0---------------|
G|--------------0-------2-------2-----------0h2-------------0-------|
D|------2-----------0-------------------0---------------0-----------|
A|--0---------------------------------------------------------------|
E|----------------------------------3-------------------------------|


E|----------------------------------------------2-------------------|
B|--0---------------0-----------0-----------3-----------3-----------|
G|--0-----------------------------------2-----------------------2---|
D|--2-----------2-----------2-------0-------------------------------|
A|--3-------3-----------3-------------------------------------------|
E|--3---------------------------------------------------------------|


E|----------2-----------0-------------------------------------------|
B|----------3-----------1-----------------------0h1-0---------------|
G|----------2-----------0-------------------0h2-------------0-------|
D|------0-----------0-----------0-------0---------------0-----------|
A|------------------------------------------------------------------|
E|--3-------------------------------3-------------------------------|



Refrain:

E|----------3-------3-----------------------------------------------|
B|----------------------------------------------3-------------------|
G|------3-------3---------------------------0---------------0-------|
D|--1---------------------------0-------3---------------3-----------|
A|----------------------------------1---------------1---------------|
E|------------------------------------------------------------------|


E|------------------------------------------------------------------|
B|--------------1-----------1-------------0h1---0---------------0---|
G|----------0-----------2-------2---------0h2---0-----------0-------|
D|------2-----------0-------------------0---------------0-----------|
A|--0---------------------------------------------------------------|
E|----------------------------------3---------------3---------------|


E|------------------------------------------------------------------|
B|--0---------------0---------------------------3---------------0---|
G|--0---------------------------0-----------2---------------0-------|
D|--2-----------2-----------2-----------0---------------2/4---------|
A|--3-------------------3-----------2-------------------------------|
E|--3-----------------------------------------------0---------------|


E|--------------------------------------------------------------0---|
B|----------1-------------------1---------------1-----------1-------|
G|--------------0-----------0---------------0-----------2-----------|
D|------2---------------2---------------2-----------0---------------|
A|--0---------------------------------------------------------------|
E|------------------3---------------0-------------------------------|



Chorus:

E|------------------------------------------------------0--------------|
B|------------------0---------------3-----------1---------------0---1--|
G|--------------0---------------0-------------------0-----------0------|
D|----------0---------------2/4-------------2---------------2----------|
A|--------------------------------------0------------------------------|
E|--3-------------------0----------------------------------------------|

E|------------------2-----------------------------------------------|
B|----------3-----------3-----------1-----------0-------------------|
G|------2-------2-----------2-------0-----------0---------------2---|
D|--0-------------------------------------------------------0-------|
A|------------------------------------------------------------------|
E|----------------------------------3-----------3-------2-----------|

E|--------------------------------------------------2---------------|
B|--------------------------3---------------3-------------------3---|
G|--------------0-----------------------2-------2-----------2-------|
D|------2/4-------------4-------4---0-------------------0-----------|
A|------------------------------------------------------------------|
E|--0-------------------------------------------------------2-------|

E|--------------------------------------------------0--------------|
B|----------3---0---------------3-----------1---------------0---1--|
G|----------0---------------0-------------------0-----------0------|
D|------0---------------2/4-------------2---------------2----------|
A|----------------------------------0------------------------------|
E|--3---------------0----------------------------------------------|

E|------------------2-------------------------------3-------2-------|
B|----------3-----------3-------------------1-------1---------------|
G|------2-------2-----------2-----------2-----------2-------2-------|
D|--0---------------------------0---1---------------------------1---|
A|------------------------------------------------------------------|
E|------------------------------------------------------------------|


E|----------3---2---0-----------------------------------------------|
B|----------0---0---0---------------------------------------3-------|
G|------0---0---0---0---------------5-------4-------2-----------2---|
D|--------------0-----------------------5-------0-------0-----------|
A|------------------3-----------------------------------------------|
E|--0-------------------------------5-------3-------2---------------|




II.

E|------------------------------0-----------------------------------|
B|--------------3-------------------------------1---------------0---|
G|----------0---------------0---------------0---------------0-------|
D|------0---------------3---------------2---------------2-----------|
A|------------------1---------------3---------------0---------------|
E|--3---------------------------------------------------------------|

E|------------------------------0-------------------------------------|
B|--------------3-------------------------------1-----------0---------|
G|----------0---------------0---------------0---------------4h5-p-4-2-|
D|------0---------------3---------------2---------------2-------------|
A|------------------1---------------3---------------0-----------------|
E|--3-----------------------------------------------------------------|



Verse 2:

E|------------------------------0-----------------------------------|
B|--------------3-------------------------------1-------------------|
G|----------0---------------0---------------0-----------------------|
D|------0---------------3---------------2-----------3-p-2---0-------|
A|------------------1---------------3---------------3-----------3---|
E|--3---------------------------------------------------------------|


E|------------------------------------------------------------------|
B|----------1---------------1-------------------0h1-3-------0-------|
G|--------------0-------2-------2-----------0h2-----------------0---|
D|------2-----------0-------------------0---------------------------|
A|--0---------------------------------------------------------------|
E|----------------------------------3-------------------3-----------|


E|----------------------------------------------2-------------------|
B|--0---------------0-----------0-----------3-----------------------|
G|--0-----------------------------------2---------------------------|
D|--2-----------2-----------2-------0-------------------------------|
A|--3-------------------3-------------------------------------------|
E|--3---------------------------------------------------------------|


E|----------2-----------0-------------------------------------------|
B|----------------------1-----------------------0h1-0---------------|
G|----------2-----------0-------------------0h2-------------0-------|
D|------0-----------0-----------0-------0---------------0-----------|
A|------------------------------------------------------------------|
E|--3-------------------------------3-------------------------------|



Refrain 2:

E|--------------3---------------------------------------------------|
B|----------------------------------------------3-------------------|
G|------3---------------3-------------------0-------------------0---|
D|----------5---------------5---0-------3---------------3-----------|
A|--6---------------6---------------1---------------1---------------|
E|------------------------------------------------------------------|


E|------------------------------------------------------------------|
B|----------1---------------1-------------------0h1-0-----------0---|
G|--------------0-------2-------2-----------0h2-------------0-------|
D|------2-----------0-------------------0---------------0-----------|
A|--0---------------------------------------------------------------|
E|----------------------------------3-------------------------------|


E|------------------------------------------------------------------|
B|--0---------------0---------------------------3---------------3---|
G|--0---------------------------0-----------2---------------0-------|
D|--2-----------2-----------2-----------0---------------2/4---------|
A|--3-------------------3-----------2-------------------------------|
E|--3-----------------------------------------------0---------------|


E|------------------------------------------------------------------2|
B|----------1---------------1---------------1---------------1--------|
G|--------------0---------------0---------------0-------2------------|
D|------2---------------2---------------2-----------0----------------|
A|--0----------------------------------------------------------------|
E|------------------3---------------0--------------------------------|



Chorus 2:

E|--------------------------------------------------0--------------|
B|----------3---0---------------3-----------1---------------0---1--|
G|----------0---------------0-------------------0-----------0------|
D|------0---------------2/4-------------2---------------2----------|
A|----------------------------------0------------------------------|
E|--3---------------0----------------------------------------------|


E|------------------2-------------------------------3-------2-------|
B|----------3-----------3-------------------1-------1---------------|
G|------2-------2-----------2-----------2-----------2-------2-------|
D|--0---------------------------0---1---------------------------1---|
A|------------------------------------------------------------------|
E|------------------------------------------------------------------|


E|----------3---2---0-----------------------------------------------|
B|----------0---0---0---------------------------------------3-------|
G|------0---0---0---0---------------5-------4-------2-----------2---|
D|--------------0-----------------------5-------0-------0-----------|
A|------------------3-----------------------------------------------|
E|--0-------------------------------5-------3-------2---------------|


E|------------------------------0-----------------------------------|
B|--------------3-------------------------------1-------------------|
G|----------0---------------0---------------0---------------0-------|
D|------0---------------3---------------2---------------2-----------|
A|------------------1---------------3---------------0-----------0---|
E|--3---------------------------------------------------------------|



Bridge:

E|------------------3-------------------------------3---------------|
B|----------------------------------------------0-----------0-------|
G|----------3---------------3---------------2-------------------0---|
D|------5-------5---------------5-------0---------------0-----------|
A|--6-------------------6-------------------------------------------|
E|----------------------------------3-------------------------------|


E|--------------0---0---------------------------0---3---2---0-------|
B|------------------------------------------3-------3-----------3---|
G|------0-------0---0-h-2---0---2-------2-----------2---------------|
D|------2---2-----------------------0-------------------------------|
A|--0---------------------------------------------------------------|
E|------------------------------------------------------------------|


E|------------------0---2---3---2-----------------------------------|
B|----------0-------0-----------------------3-----------------------|
G|------0-------0---0-------------------2-------2-h-4---------------|
D|------------------------------------------------------------------|
A|----------------------------------2-------------------------------|
E|--0---------------------------------------------------------------|


E|------------------0---------------------------0-------------------|
B|----------0---------------0---------------1-----------------------|
G|------0-------0-------0-------0-------2---------------------------|
D|----------------------------------0-------------------------------|
A|--0---------------0-----------------------------------------------|
E|------------------------------------------------------------------|



Chorus 3:

E|------------------------------------------------------0--------------|
B|------------------0---------------3-----------1---------------0---1--|
G|--------------0---------------0-------------------0-----------0------|
D|----------0---------------2/4-------------2---------------2----------|
A|--------------------------------------0------------------------------|
E|--3-------------------0----------------------------------------------|


E|------------------2-----------------------------------------------|
B|----------3-----------3-----------1-----------0---------------3---|
G|------2-------2-----------2-------0-----------0---------------2---|
D|--0-------------------------------------------------------0-------|
A|------------------------------------------------------------------|
E|----------------------------------3-----------3-------2-----------|


E|--------------------------------------------------0---------------|
B|--------------------------3---------------3-------------------3---|
G|--------------0-----------------------2-------2-----------2-------|
D|------2/4-------------4-------4---0-------------------0-----------|
A|------------------------------------------------------------------|
E|--0-------------------------------------------------------2-------|


E|--------------------------------------------------0--------------|
B|--------------3---------------3-----------1---------------0---1--|
G|----------0---------------0-------------------0-----------0------|
D|------0---------------2/4-------------2---------------2----------|
A|----------------------------------0------------------------------|
E|--3---------------0----------------------------------------------|


E|------------------2-------------------------------3-------2-------|
B|----------3-----------3-------------------1-------1---------------|
G|------2-------2-----------2-----------2-----------2-------2-------|
D|--0---------------------------0---1---------------------------1---|
A|------------------------------------------------------------------|
E|------------------------------------------------------------------|


E|----------3---2---0---------------------------------------2-------|
B|----------0---0---0-----------------------------------0---1-------|
G|------0---0---0---0---------------5-------4-------2-------2-------|
D|--------------0-----------------------5-------0-----------1-------|
A|------------------3-----------------------------------------------|
E|--0-------------------------------5-------3-------2---------------|


E|----------3---2---0-----------------------------------------------|
B|----------0---0---0---------------------------------------3-------|
G|------0---0---0---0---------------5-------4-------2-----------2---|
D|--------------0-----------------------5-------0-------0-----------|
A|------------------3-----------------------------------------------|
E|--0-------------------------------5-------3-------2---------------|


Outro:

E|------------------------------0-----------------------------------|
B|--------------3-------------------------------1---------------1---|
G|----------0---------------0---------------0---------------0-------|
D|------0---------------3---------------2---------------2-----------|
A|------------------1---------------3---------------0---------------|
E|--3---------------------------------------------------------------|


E|-----------------------------------------------------------------|
B|--------------1---------------3---------------0------------------|
G|----------0---------------2---------------2----------------------|
D|------2---------------1---------------0--------------------------|
A|-----------------------------------------------------------------|
E|--3---------------3---------------3------------------------------|


h  =  hammer on
p  =  pull off
/  =  slide up
\  =  slide down
x  =  dead string
TAP=  tapping the string/strings
() =  natural harmonic
[] =  artificial harmonic
.  =  staccato effect
~~ =  vibratto effect
*  =  how it was played
^  =  strum
___=  Let ring (strike the 1st note and let it ring up to the 2nd note[without striking
2nd note]).

      vote please.tnx!





Comments


Popular Michael Johnson tabs & chords
Bluer Than Blue 1 Chords
Give Me Wings ( If You Love Me ) Chords
Han Gar Aldrig Forbi Dig Chords
I Will Whisper Your Name Chords
I'll Always Love You Chords
Ill Always Love You 2 Chords
The Moon Is Still Over Her Shoulder Chords
I'll Always Love You 1 Tabs
The Love She Found In Me Ukulele
This Night Wont Last Forever Ukulele


Song lyrics



↑ Back to top | Tablatures and chords are parodies/interpretations of the original songs. You may use it for private study, scholarship, research or language learning purposes only
© 2014 AZChords.com Contact us | Privacy policy | DMCA | Add/correct tabs | Request tabs | Top 50 tabs