» » »

Michael Johnson, Bluer Than Blue Chords (ver.1)

Artists:  A B C D E F G H I J K L M N O P Q R S T U V W X Y Z # 

Bluer Than Blue Chords (ver.1)

Michael Johnson Tabs
Rating:
4/5 (2 votes)
Bluer Than Blue lessons Tabs too difficult? Try these video lessons and learn fast
                Performed by Michael Johnson

Riff#1            Riff#2        Riff#3            R#4
|--0---3-2-0-2---|--0----0-2---|--3----------3---|--0-----------|
|--1-------------|--1--3-------|--0----------0---|--0-----------|
|--2-------------|--2----------|--0----------0---|--0-------0---|
|--2-------------|--2----------|--0------0-2-3---|--2---2h4-----|
|--0-------------|--0----------|--2--------------|--2-----------|
|----------------|-------------|--3-----3--------|--0-----------|

Chorus Riff
|--3---------------2---------------|   Some Chords:  G7/F:  xx3003
|--0---------------0---------------|                B7/D#:  xx1202
|--0---------------0---------------|                 A/C#:  x4222x
|--0------0h2--0---0------0h2--0---|                  C/D:  xx0010
|--2---------------2---------------|
|--3---------------3---------------|

------------------------------------------------------------------

Intro:
   C     A     D     B7    Em
|--0--3--5--3--2--5--7----|-3--------3-5-7--5--3--2--|
|--1-----2-----3-----4--7-|-5------------------------|
|--0-----2-----2-----4----|-4--------4-5-7--5--4--2--|
|--2-----2-----0-----4----|--------------------------|
|--3-----0----------------|--------------------------|
|-------------------------|-0---0-0------------------|

   C     A     D     B7    E      
|--0--3--5--3--2--5--7--5-|-0--|  
|--1-----2-----3-----4----|-0--|  
|--0-----2-----2-----4----|-1--|  
|--2-----2-----0-----4----|-2--|
|--3----------------------|-2--|
|-------------------------|-0--|

[Verse1]
E         E7        A              Am  (Riff1)
After you go, I can catch up on my reading
E         E7              A                 Am (Riff2)  
After you go, I'll have a lot more time for sleeping
G  (Riff#3)     G7/F            Cmaj7                      C
And when you're gone looks like things are gonna be a lot easier
Bm7                        Em (R#4)    Am7    Bm7        C      D
Life will be a breeze, you know.     I really should be glad

[Chorus]
        G  (Chorus Riff) Gmaj7
But I'm bluer than blue. Sadder than sad
G7                               C
You're the only light this empty room has ever had
G             B7/Eb  Em            Am
Life without you is  gonna be...
G          Am7         Bm7     C  A/C#  D  B7/Eb
Bluer than blue

[Verse2]
E         E7        A              Am  (Riff1)
After you go, I'll have a lot more room in my closet
E         E7              A                 Am (Riff2)  
After you go, I'll stay out all night long if I feel like it
G  (Riff#3)     G7/F       Cmaj7                   C
And when you're gone I can run through the house screamin'
Bm7                        Em       Am7   Bm7  C        D
And no one will ever hear me. I really should be glad.

[Chorus]
        G  (Chorus Riff) Gmaj7
But I'm bluer than blue. Sadder than sad
G7                               C
You're the only light this empty room has ever had
G             B7/Eb   Em            Am
Life without you is   gonna be...
G          
Bluer than ...

[Bridge]
        Am7             Bm7            C                   Bm7
I don't have to miss no TV shows I can start my whole life over
           Am7           Bm7               C           A/C#    D
Change the numbers on my telephone But the nights will sure be colder.

[Chorus]
Dsus4     G  (Chorus Riff) Gmaj7
But I'm   bluer than blue. Sadder than sad
G7                               C
You're the only light this empty room has ever had
G             B7/Eb   Em            Am
Life without you is   gonna be...
G          Am7         Bm7     C  A/C#  D     B7/Eb  Em
Bluer than blue                         Bluer than   blue

Em  Em7  Em  Am7   C/D        G
                   Bluer than blue
            

comments powered by Disqus
↑ Back to top | Michael Johnson Chords for Bluer Than Blue. Lyrics for acoustic guitar and electric guitar. Tablatures and chords are parodies/interpretations of the original songs. You may use it for private study, scholarship, research or language learning purposes only