» » »

Michael Franti, Sound Of Sunshine Tabs (ver.1)

Artists:  A B C D E F G H I J K L M N O P Q R S T U V W X Y Z # 

Sound Of Sunshine Tabs (ver.1)

Michael Franti Tabs
 Rating:
4/5 (6 votes)
Sound Of Sunshine lessons Tabs too difficult? Try these video lessons and learn fast
1
                MICHAEL FRANTI
THE SOUND OF SUNSHINE!
Enjoy!

Intro:
-------------10--------15--11~--13---------10---------------------|
-11~---11-13----10~----------------13~--------13-11-11~-----10-11-|
-----------------------------------------10--------------10-------|
------------------------------------------------------------------|
------------------------------------------------------------------|
------------------------------------------------------------------|

-x-----|
-11----|
-10----|   I don't even know if this chord exists,
-8-----|   but it sounds okay if you play this at the start.
-8-----|   Or you can play a Bb instead of the riff...
-x-----|

Verse: chords.
Bb Bb F F Eb Cm Bb Gm Eb Eb Bb Gm

Chorus:

----------------------------------|
----------------------------------|
-----10--10--12--10---------------|
-10----10-------------10----------|  1x
----------------------------------|
----------------------------------|

----------------------------|
----------------------------|
----10-10--12--10-----------|
-8----8---------------------|    3x
----------------------------|
----------------------------|

Repeat Chorus.
End of chorus:

----------------------------------|
----------------------------------|
-----10--10--12--10---------------|
-10----10-------------10----------|  1x
----------------------------------|
----------------------------------|

----------------------------|
----------------------------|
----10-10--12--10-----------|
-8----8---------------------|    1x
----------------------------|
----------------------------|

---------------------------------------|
---------------------------------------|
-15--12--------------------------------|
---------15--12------------------------|  1x
-----------------(13)------------------|
---------------------------------------|

Verse 2:
Bb Bb F F Eb Cm Bb Gm

Chorus 2:

----------------------------------|
----------------------------------|
-----10--10--12--10---------------|
-10----10-------------10----------|  1x
----------------------------------|
----------------------------------|

----------------------------|
----------------------------|
----10-10--12--10-----------|
-8----8---------------------|    1x
----------------------------|
----------------------------|

---------------------|
---------------------|
-15--12--------------|
---------15--12------|  2x
---------------------|
---------------------|

Repeat Chorus 2.

Bridge:
Gm Bb 3x
F 4x

Chorus 2

Breakdown:
Bb
Bb
Eb Cm
Bb Gm

Chorus 2
            
Submit corrections

comments powered by Disqus
↑ Back to top | Michael Franti Tabs for Sound Of Sunshine. Lyrics for acoustic guitar and electric guitar. 1 Tablatures and chords are parodies/interpretations of the original songs. You may use it for private study, scholarship, research or language learning purposes only