» » »

I Know I'm Not Alone Tabs (ver.1)

Artists:  A B C D E F G H I J K L M N O P Q R S T U V W X Y Z # 

I Know I'm Not Alone Tabs (ver.1)

Michael Franti
Rating:
5/5 (1 vote)

Hard to play? Try these video lessons and learn fast.
                Spearhead and Michael Franti - I know i'm not alone

/ : slide

e------5-----5-----5------5-....--------------------------|
B---3----3-----3------3-----------------------------------|
G---------------------------------------------------------|
D---------------------------------------------------------|
A---------------------------------------------------------|
E---------------------------------------------------------|
1st guitar keeps doing that.

then 2nd.
e------------------------------------------------------------------------|
B------------------------------------------------------------------------|
G---11--/---14--------|---11--/--14---/---16---/-11----------------------|
D---11--/---14--------|---11--/--14---/---16---/-11----------------------|
A---9---/---12--------|---9---/--12---/---14---/--9----------------------|
E---------------------|--------------------------------------------------|


e-------------------------|-------------------------------------------------|
B-------------------------|-------------------------------------------------|
G---11--/---14------------|---11--/--14---/---16---/-11--/--9---/--7--------|
D---11--/---14------------|---11--/--14---/---16---/-11--/--9---/--7--------|
A---9---/---12------------|---9---/--12---/---14---/--9---/--7---/-5--------|
E-------------------------|-------------------------------------------------|

e------5-----5-----5------5-....--------------------------|
B---3----3-----3------3-----------------------------------|
G---------------------------------------------------------|
D---------------------------------------------------------|
A---------------------------------------------------------|
E---------------------------------------------------------|

Everytime I read the news...

e-------------------------|-------------------------------------------------|
B-------------------------|-------------------------------------------------|
G---11--/---14------------|---11--/--14---/---16---/-11--/--9---/--7--------|
D---11--/---14------------|---11--/--14---/---16---/-11--/--9---/--7--------|
A---9---/---12------------|---9---/--12---/---14---/--9---/--7---/-5--------|
E-------------------------|-------------------------------------------------|
...BUT I know i know i'm not alone

Then
e---------------------------------------------------------------|
B---------------------------------------------------------------|
G---------------------------7-/-9-/11--2--4-/-5-----------------|
D--9-/--11/-12--5-/-7-/-9---7-/-9-/11--2--4-/-5-----------------|
A--9-/--11/-12--5-/-7-/-9---5-/-7-/-9--0--2-/-3-----------------|
E--7-/--9-/-10--3~/-5-/-7---------------------------------------|


e---------------------------------------------------------------|
B---------------------------------------------------------------|
G---------------------------7-/-9-/11--2--4-/-5--2--4-/-5-------|
D--9-/--11/-12--5-/-7-/-9---7-/-9-/11--2--4-/-5--2--4-/-5-------|
A--9-/--11/-12--5-/-7-/-9---5-/-7-/-9--0--2-/-3--0--2-/-3-------|
E--7-/--9-/-10--3~/-5-/-7---------------------------------------|


SOLO
WOehoe hoe hooew.
e-------------3-2-3-5-3-2-0------------------------|
B-5-3-5-7-5-7---------------restart----------------|
G--------------------------------------------------|
D--------------------------------------------------|
A--------------------------------------------------|
E--------------------------------------------------|

2nd Guitar
e-------------------------------------------|
B-------------------------------------------|
G-------------------------------------------|
D--77777775-7.------------------------------|
A--77777777-7-------------------------------|
E--55555555-5-------------------------------|


End chord is after the normal riff.
e---------------------------------|
B---------------------------------|
G-2-4-5-2-4-5--..-7---------------|
D-2-4-5-2-4-5--..-7---------------|
A-0-2-3-0-2-3--..-5---------------|
E---------------------------------|

That's It

grtjs Dempj
            
Hard to play? Try these video lessons and learn fast. | Correct




comments powered by Disqus
↑ Back to top | Tablatures and chords are parodies/interpretations of the original songs. You may use it for private study, scholarship, research or language learning purposes only