» » »

Dream A Little Dream Tabs (ver.1)

Artists:  A B C D E F G H I J K L M N O P Q R S T U V W X Y Z # 

Dream A Little Dream Tabs (ver.1)

Michael Buble
Rating:
0/5 (0 votes)

Hard to play? Try these video lessons and learn fast.
                E||-------------------------|
B||--0-------1-------3------|
G||-----0-------0-------0---|
D||-------------------------|
A||----------0-------2------|
E||--3----------------------|


E||--------0----------2-----------------------------------3--------|
B||--------1----------1----------------4-----3------------3--------|
G||-----0-----0----------2-------------5-----4--------4------------|
D||----------------1-------------------4-----3---------------------|
A||--3-------------------------------------------------------5---4-|
E||-------------------------0-------4--------3-----3---------------|


E||--------0----------2-----------------------------------3--------|
B||--------1----------1----------------6-----3------------3--------|
G||-----0-----0----------2-------------5-----4--------4------------|
D||----------------1-------------------4-----3---------------------|
A||--3-------------------------------------------------------5--4--|
E||-------------------------0-------4--------3-----3---------------|


E||----------------------------------------------------------------|
B||-------0h1p0----0--1--0-----------4-------------------0---------|
G||-----0--------------------2-------5----4--------------0---------|
D||----------------1---------------------------------3-------------|
A||--3------------------------------------------------------0---2--|
E||-------------------------------4--------------3-----------------|


E||---------------------------------------------------------|
B||-------0h1----0--1----0----------5---2-------------------|
G||-----0-------------------2---4S6--------2S3S2------------|
D||---------------------------------------------------0--2--|
A||--3-----------2-----1--------0-----0----0-------0--------|
E||---------------------------------------------------------|


-------------------------------------------1------------------|
------3----1--3--1-----3--1-----1----------1------------1--3--|
----2------2--------1--------1----------1-----1---0--2--------|
--3-----3-----------------------------------------1-----------|
-------------------------------------1------------3-----------|
-----------------------1--------------------------------------|


---------------------------------------------------------------|
--3S4--3--1----------------------------------------------------|
--2S3--2-------------------------------------------------------|
--3S4--3-------------------------------------------------------|
---------------------------------------------------------------|
---------------------------------------------------------------|
            
Hard to play? Try these video lessons and learn fast. | Correct




comments powered by Disqus
↑ Back to top | Tablatures and chords are parodies/interpretations of the original songs. You may use it for private study, scholarship, research or language learning purposes only