» » »

Liquid Spear Waltz Bass tabs (ver.1)

Artists:  A B C D E F G H I J K L M N O P Q R S T U V W X Y Z # 

Liquid Spear Waltz Bass tabs (ver.1)

Michael Andrews
Rating:
0/5 (0 votes)

Hard to play? Try these video lessons and learn fast.
                

Tuning: E A D G

00:00 - 00:17

 G |-------------|
 D |-3-6-6-0-6-6-|
 A |-------------|
 E |-------------|

00:12 - 00:27

 G |-7----------------------------------13s10-|
 D |---6-5-6-5--------10-9-8-7----------------|
 A |-----------8-7-------------11-10-8--------|
 E |------------------------------------------|

00:29 - 00:37

 G |-7---------------5-|
 D |---6-5-6-5---------|
 A |-----------8-7-----|
 E |-------------------|

00:41 - 00:54

 G |---7-------------8---------|
 D |-8-----11-10-9-8-----5---6-|
 A |---------------------------|
 E |---------------------------|

00:59 - 1:08

 G |-7-----------------|
 D |---6-5-6-5---------|
 A |-----------8-7---6-|
 E |-------------------|

1:11 - 1:22

 G |---------------------------------------------|
 D |-----------------5-6-5-------------------5---|
 A |---5-6---5-6-6-8-----------5-6---5-6-6-8---8-|
 E |-8-----8-----------------8-----8-------------|
            
Hard to play? Try these video lessons and learn fast. | Correct




comments powered by Disqus
↑ Back to top | Tablatures and chords are parodies/interpretations of the original songs. You may use it for private study, scholarship, research or language learning purposes only