» » »

Micah P Hinson, You Lost Sight On Me Tabs (ver.1)

Artists:  A B C D E F G H I J K L M N O P Q R S T U V W X Y Z # 

You Lost Sight On Me Tabs (ver.1)

Micah P Hinson Tabs
Rating:
0/5 (0 votes)
Hard to play? Try these video lessons and learn fast.
                -------------------------------------------------------------------------------
                             You Lost Sight on Me - Micah P. Hinson
-------------------------------------------------------------------------------

Tuning: Standard

  INTRO
e|------------------|-----------------|-----------------|-----------------|
B|o-----------------|---------1-----1-|-0-----0-----0---|-0-----0---------|
G|--0-----0-----0---|-2-----2---------|-----------------|---------2---0---|
D|----0-----0-----0-|---0-------0-----|---0-----0-----0-|---0-------0---0-|
A|o-----------------|-----------------|-----------------|-----------------|
E|--3---3-----3-----|-3---3---3---3---|-3---3-----3-----|-3---3---3---3---|

e|-----------------|-----------------|-----------------|-------------------|
B|-1-----1-0-------|-----------------|-----------------|-------------------|
G|---------------0-|-----0-----2-----|-0-----0-0-----0-|-----0-----0-------|
D|---2-------2-----|-2-----2-----2---|---2-------5-----|-4-----2-----0h2p0-|
A|-3---3---3---3-3-|---3-----3-3---3-|-3---3---3---3-3-|---3-3---3---------|
E|-----------------|-----------------|-----------------|-------------------|

e|-----------------|------------------|
B|-----------------|-----------------o|
G|-0-----0---2-----|-0-----0-----0----|
D|---0-----0---0---|---0-----0-----0--|
A|-----------------|-----------------o|
E|-3---3-----3---3-|-----3-----3------|

  VERSE (Very similar to Intro)
  "You lost sight on me..."
e|-----------------|-----------------|-----------------|-----------------|
B|-----------------|---------1-----1-|-0-----0-----0---|-0-----0-----0---|
G|-0-----0-----0---|-2-----2---------|-----------------|-----------------|
D|---0-----0-----0-|---0-------0-----|---0-----0-----0-|---0-----0-----0-|
A|-----------------|-----------------|-----------------|-----------------|
E|-3---3-----3-----|-3---3---3---3---|-3---3-----3-----|-3---3-----3-----|

  "Whilst the wind it blows, so holy"
e|-----------------|-----------------|-----------------|-----------------|
B|-1-----1-0-------|-----------------|-----------------|-----------------|
G|---------------0-|-----0-----0-----|-0-----0---2-----|-0-----0-----0---|
D|---2-------2-----|-2-----2-----2---|---0-----0---0---|---0-----0-----0-|
A|-3---3---3---3-3-|---3-----3-----3-|-----------------|-----------------|
E|-----------------|-----------------|-3---3-----3---3-|-----3-----3-----|

  "As if I disappeared..."
e|-----------------|-----------------|-----------------|-----------------|
B|-----------------|---------1-----1-|-0-----0-----0---|-0-----0-----0---|
G|-0-----0-----0---|-2-----2---------|-----------------|-----------------|
D|---0-----0-----0-|---0-------0-----|---0-----0-----0-|---0-----0-----0-|
A|-----------------|-----------------|-----------------|-----------------|
E|-3---3-----3-----|-3---3---3---3---|-3---3-----3-----|-3---3-----3-----|

  "To thin breathless air, drinking, bittersweet"
e|-----------------|-----------------|-----------------|-------------------|
B|-1-----1-0-------|-----------------|-----------------|-------------------|
G|---------------0-|-----0-----2-----|-0-----0-0-----0-|-----0-----0-------|
D|---2-------2-----|-2-----2-----2---|---2-------5-----|-4-----2-----0h2p0-|
A|-3---3---3---3-3-|---3-----3-3---3-|-3---3---3---3-3-|---3-3---3---------|
E|-----------------|-----------------|-----------------|-------------------|

                                      "And sometimes it seems..."
e|-----------------|-----------------|-----------------|-----------------|
B|-----------------|-----------------|-----------------|---------1-----1-|
G|-0-----0---2-----|-0-----0-----0---|-0-----0-----0---|-2-----2---------|
D|---0-----0---0---|---0-----0-----0-|---0-----0-----0-|---0-------0-----|
A|-----------------|-----------------|-----------------|-----------------|
E|-3---3-----3---3-|-----3-----3-----|-3---3-----3-----|-3---3---3---3---|

                                      "...that you lost sight on me"
e|-----------------|-----------------|-----------------|-----------------|
B|-0-----0-----0---|-0-----0-----0---|-1-----1-0-------|-----------------|
G|-----------------|-----------------|---------------0-|-----0-----2-----|
D|---0-----0-----0-|---0-----0-----0-|---2-------2-----|-2-----2-----2---|
A|-----------------|-----------------|-3---3---3---3-3-|---3-----3-3---3-|
E|-3---3-----3-----|-3---3-----3-----|-----------------|-----------------|

e|-----------------|-------------------|-----------------|-----------------|
B|-----------------|-------------------|-----------------|-----------------|
G|-0-----0-0-----0-|-----0-----0-------|-0-----0---2-----|-0-----0-----0---|
D|---2-------5-----|-4-----2-----0h2p0-|---0-----0---0---|---0-----0-----0-|
A|-3---3---3---3-3-|---3-3---3---------|-----------------|-----------------|
E|-----------------|-------------------|-3---3-----3---3-|-----3-----3-----|

  INTERLUDE
e|-----------------|-----------------|-----------------|--------------------|
B|-3-/-8~-------8/-|-10------13------|-13-\-12---------|-10/12\10--10/12\10-|
G|-----------------|-----------------|-----------------|--------------------|
D|-----------------|-----------------|-----------------|--------------------|
A|-----------------|-----------------|-----------------|--------------------|
E|-----------------|-----------------|-----------------|--------------------|

e|-----------------|-----------------|------------------|--------------------|
B|-13-----12-----8-|-(8)------10-----|-8------8\7----7\-|-5---5/7\5----5/8---|
G|-----------------|-----------------|------------------|--------------------|
D|-----------------|-----------------|------------------|--------------------|
A|-----------------|-----------------|------------------|--------------------|
E|-----------------|-----------------|------------------|--------------------|

e|-----------------| 
B|-8-\-3-----------| (Then some synthesizer stuff)
G|-----------------|
D|-----------------|
A|-----------------|
E|-----------------|

  VERSE

  "And don't lead me on..."
e|-----------------|-----------------|-----------------|-----------------|
B|-----------------|---------1-----1-|-0-----0-----0---|-0-----0-----0---|
G|-0-----0-----0---|-2-----2---------|-----------------|-----------------|
D|---0-----0-----0-|---0-------0-----|---0-----0-----0-|---0-----0-----0-|
A|-----------------|-----------------|-----------------|-----------------|
E|-3---3-----3-----|-3---3---3---3---|-3---3-----3-----|-3---3-----3-----|

  "And don't break my heart..."
e|-----------------|-----------------|-----------------|-----------------|
B|-----------------|---------1-----1-|-0-----0-----0---|-0-----0-----0---|
G|-0-----0-----0---|-2-----2---------|-----------------|-----------------|
D|---0-----0-----0-|---0-------0-----|---0-----0-----0-|---0-----0-----0-|
A|-----------------|-----------------|-----------------|-----------------|
E|-3---3-----3-----|-3---3---3---3---|-3---3-----3-----|-3---3-----3-----|


  "You know it's breakable, you know it's sweet."
e|-----------------|-----------------|-----------------|-----------------|
B|-1-----1-0-------|-----------------|-----------------|-----------------|
G|---------------0-|-----0-----0-----|-0-----0---2-----|-0-----0-----0---|
D|---2-------2-----|-2-----2-----2---|---0-----0---0---|---0-----0-----0-|
A|-3---3---3---3-3-|---3-----3-----3-|-----------------|-----------------|
E|-----------------|-----------------|-3---3-----3---3-|-----3-----3-----|

  "And what shall I do..."
e|-----------------|-----------------|-----------------|-----------------|
B|-----------------|---------1-----1-|-0-----0-----0---|-0-----0---------|
G|-0-----0-----0---|-2-----2---------|-----------------|---------2---0---|
D|---0-----0-----0-|---0-------0-----|---0-----0-----0-|---0-------0---0-|
A|-----------------|-----------------|-----------------|-----------------|
E|-3---3-----3-----|-3---3---3---3---|-3---3-----3-----|-3---3---3---3---|

  "...when it finally crumbles away?
e|-----------------|-----------------|-----------------|-----------------|
B|-1-----1-0-------|-----------------|-----------------|-----------------|
G|---------------0-|-----0-----0-----|-0-----0---2-----|-0-----0-----0---|
D|---2-------2-----|-2-----2-----2---|---0-----0---0---|---0-----0-----0-|
A|-3---3---3---3-3-|---3-----3-----3-|-----------------|-----------------|
E|-----------------|-----------------|-3---3-----3---3-|-----3-----3-----|


  "Pick up all these years..."
e|-----------------|-----------------|-----------------|-----------------|
B|-----------------|---------1-----1-|-0-----0-----0---|-0-----0-----0---|
G|-0-----0-----0---|-2-----2---------|-----------------|-----------------|
D|---0-----0-----0-|---0-------0-----|---0-----0-----0-|---0-----0-----0-|
A|-----------------|-----------------|-----------------|-----------------|
E|-3---3-----3-----|-3---3---3---3---|-3---3-----3-----|-3---3-----3-----|


  "...that I seen myself throw away."
e|-----------------|-----------------|-----------------|-----------------|
B|-1-----1-0-------|-----------------|-----------------|-----------------|
G|---------------0-|-----0-----0-----|-0-----0---2-----|-0-----0-----0---|
D|---2-------2-----|-2-----2-----2---|---0-----0---0---|---0-----0-----0-|
A|-3---3---3---3-3-|---3-----3-----3-|-----------------|-----------------|
E|-----------------|-----------------|-3---3-----3---3-|-----3-----3-----|


  "To where I know it will be safe..."
e|-----------------|-----------------|-----------------|-----------------|
B|-----------------|---------1-----1-|-0-----0-----0---|-0-----0-----0---|
G|-0-----0-----0---|-2-----2---------|-----------------|-----------------|
D|---0-----0-----0-|---0-------0-----|---0-----0-----0-|---0-----0-----0-|
A|-----------------|-----------------|-----------------|-----------------|
E|-3---3-----3-----|-3---3---3---3---|-3---3-----3-----|-3---3-----3-----|

  "...from all your broken hearts."
e|-----------------|-----------------|-----------------|-------------------|
B|-1-----1-0-------|-----------------|-----------------|-------------------|
G|---------------0-|-----0-----2-----|-0-----0-0-----0-|-----0-----0-------|
D|---2-------2-----|-2-----2-----2---|---2-------5-----|-4-----2-----0h2p0-|
A|-3---3---3---3-3-|---3-----3-3---3-|-3---3---3---3-3-|---3-3---3---------|
E|-----------------|-----------------|-----------------|-------------------|

e|-----------------| 
B|-0---------------|
G|-0---------------|
D|-0---------------|
A|-2---------------|
E|-3---------------|




************************************

| /   slide up
| \   slide down
| h   hammer-on
| p   pull-off
| ~   vibrato
| +   harmonic
| x   Mute note
| b   Bend
| pb  Pre-bend
| br  Bend release
| pbr Pre-bend release
| brb Bend release bend

************************************
            

comments powered by Disqus
↑ Back to top | Micah P Hinson Tabs for You Lost Sight On Me. Lyrics for acoustic guitar and electric guitar. Tablatures and chords are parodies/interpretations of the original songs. You may use it for private study, scholarship, research or language learning purposes only