» » »

Micah P Hinson, Beneath The Rose Tabs (ver.1)

Artists:  A B C D E F G H I J K L M N O P Q R S T U V W X Y Z # 

Beneath The Rose Tabs (ver.1)

Micah P Hinson Tabs
 Rating:
4/5 (4 votes)
Beneath The Rose lessons Tabs too difficult? Try these video lessons and learn fast
                ----------------------------------------------------------------------------
                             Beneath the Rose - Micah P. Hinson
----------------------------------------------------------------------------

Tuning: Standard

Fingerpicked very fast in a triplet style...

| p = thumb
| i = index
| m = middle
| a = ring

  Intro
  G
e|-----------------------------------------------------|
B|------8-----8------8-----8------8-----8------8-----8-|
G|----7-----7------7-----7------7-----7------7-----7---|
D|--------9------------9------------9------------9-----|
A|-10-----------10-----------10-----------10-----------|
E|-----------------------------------------------------|
    p i m p i m...(use this pattern throughout)


  Verse (It is said...)  
   G                         x2  Em                      x2   
e|-----------------------------|---------------------------|   
B|o------8-----8------8-----8-o|o-----8-----8-----8-----8-o|   
G|-----7-----7------7-----7----|----9-----9-----9-----9----|
D|---------9------------9------|--------9-----------9------|
A|o-10-----------10-----------o|o-7-----------7-----------o|
E|-----------------------------|---------------------------|

   G                         x2  Em                      x2
e|-----------------------------|---------------------------|
B|o------8-----8------8-----8-o|o-----8-----8-----8-----8-o|
G|-----7-----7------7-----7----|----9-----9-----9-----9----|
D|---------9------------9------|--------9-----------9------|
A|o-10-----------10-----------o|o-7-----------7-----------o|
E|-----------------------------|---------------------------|

   B                       x2  C                          x2
e|---------------------------|------------------------------|
B|o-----7-----7-----7-----7-o|o-----8------8------8------8-o|
G|----8-----8-----8-----8----|----9------9------9------9----|
D|--------9-----------9------|--------10------------10------|
A|o-------------9-----------o|o--------------10------------o|
E|--7------------------------|--8---------------------------|

   G                       x2  D                       x2
e|---------------------------|---------------------------|
B|o-----3-----3-----3-----3-o|o-----7-----7-----7-----7-o|
G|----4-----4-----4-----4----|----7-----7-----7-----7----|
D|--------5-----------5------|--------7-----------7------|
A|o-------------5-----------o|o-5-----------5-----------o|
E|--3------------------------|---------------------------|

That's it.

============================================================================
            
Submit corrections

comments powered by Disqus
↑ Back to top | Micah P Hinson Tabs for Beneath The Rose. Lyrics for acoustic guitar and electric guitar. Tablatures and chords are parodies/interpretations of the original songs. You may use it for private study, scholarship, research or language learning purposes only