» » »

Meursault, Weather Tabs (ver.1)

Artists:  A B C D E F G H I J K L M N O P Q R S T U V W X Y Z # 

Weather Tabs (ver.1)

Meursault Tabs
 Rating:
4/5 (4 votes)
Weather lessons Tabs too difficult? Try these video lessons and learn fast
                -----------------------------------------------------------------------------
-----------------------------------------------------------------------------


Tuning: DADGAd
Capo on 4th fret

listen to the song for strum, outside live acoustic version is very clear
intro, repeat 2x, 2nd time without the 420 at the end

d|0-- 0-- 0-- 0-- 0-- 0-- 0-- 420|
A|0-- 0-- 0-- 0-- 0-- 0-- 0-- 000|
G|2-- 2-- 2-- 2p0 0h2 2-- 2-- 222|
D|0-- 0-- 0-- 0-- 0-- 0-- 0-- 000|
A|0-- 0-- 0-- 0-- 0-- 0-- 0-- 000|
D|0-- 0-- 0-- 0-- 0-- 0-- 0-- 000|

throughout song

      |0----------------------0-------------0--------------------0--------|
     A|0----------------------0-------------0--------------------0--------|
     G|2----------------------4-------------2--------------------2--------|
     D|0----------------------0-------------0--------------------0--------|
     A|0----------------------5-------------4--------------------4--------|
     D|0----------------------5-------------4--------------------4--------|

@ the "I wanted to know a love without guard"
only:

d|0-----0-----|
A|0-----0-----|
G|2-----4-----|
D|0-----0-----|
A|0-----5-----|
D|0-----5-----|

untill after "silence 'till the end" where he goes to the 440200 shape for 2 bars,
then 

d|0-----0-----|
A|0-----0-----|
G|2-----2-----|
D|0-----0-----|
A|0-----4-----|
D|0-----4-----|


	d|-------------------------------------------|
	A|-------------------------------------------|
	G|-------------------------------------------|
	D|2------------0-----------2---------0-------|
	A|2------------0-----------2---------0-------|
	D|2------------0-----------2---------0-------|
   i will|sing  i will struggle i will sleep 

That's about it, while doing the OOOOOOOH i like to put in the 420 part, 
just a personal preference...

Enjoy!


************************************

| h   hammer-on
| p   pull-off

************************************
            
Submit corrections

comments powered by Disqus
↑ Back to top | Meursault Tabs for Weather. Lyrics for acoustic guitar and electric guitar. Tablatures and chords are parodies/interpretations of the original songs. You may use it for private study, scholarship, research or language learning purposes only