» » »

Metronomy, The End Of You Too Bass tabs (ver.1)

Artists:  A B C D E F G H I J K L M N O P Q R S T U V W X Y Z # 

The End Of You Too Bass tabs (ver.1)

Metronomy Tabs
 Rating:
4/5 (4 votes)
The End Of You Too lessons Tabs too difficult? Try these video lessons and learn fast
1
                -------------------------------------------------------------------------------
			     END OF YOU TOO - Metronomy
-------------------------------------------------------------------------------


Tuning:

Intro (slightly swung)
G|---------------------------------------------------------------------------------------|
D|---3---5---7---7----7---7---7---7---3---5---7----7---7---------------------------------|
A|---------------------------------------------------------------------------------------|
E|-1---3---5---5---5----5---5---5---1---3---5---5---5------------------------------------|

G|-9---7---5---5---5---9---7---5---5---5-------------------------------------------------|
D|---------------------------------------------------------------------------------------|
A|---7---5---3---3---3---7---5---3---3---3-----------------------------------------------|x2
E|---------------------------------------------------------------------------------------|

Verse
G|----------------------------|---------------------------|------------------------------|
D|----------------------------|-----------------------0-2-|--3--3--3--3--3--3-3-3-2------|
A|--0--0--0--0--0--0--0-0-2-5-|--3--3--3--3--3--3-3-3-----|-------------------------3----|
E|----------------------------|---------------------------|------------------------------|

G|-----------------------------|---------------------------------------------------------|
D|-------------------3-3-3-2---|---------------------------------------------------------|
A|-0--0--0--0--0--0----------3-|--repeat x4 then repeat under keyboard solo--------------|
E|-----------------------------|---------------------------------------------------------|

key change
G|----------------------------|------------------------------|---------------------------|
D|----------------------------|----------------------------0-|-1--1--1--1--1-1--1-1-1-0--|
A|--------------------------3-|--1--1--1--1--1--1--1-1-1-3---|-------------------------1-|
E|--3--3--3--3--3--3--3-3-5---|------------------------------|---------------------------|

G|-------------------------------|-------------------------------------------------------|
D|--------------------1-1-1-0----|-------------------------------------------------------|
A|----------------------------1--|-repeat until the next key change----------------------|
E|--3--3--3--3--3--3-------------|-------------------------------------------------------|


Verse (part two)
G|----------------------------|---------------------------|------------------------------|
D|----------------------------|-----------------------0-2-|--3--3--3--3--3--3-3-3-2------|
A|--0--0--0--0--0--0--0-0-2-5-|--3--3--3--3--3--3-3-3-----|-------------------------3----|
E|----------------------------|---------------------------|------------------------------|

G|-----------------------------|---------------------------------------------------------|
D|-------------------3-3-3-2---|---------------------------------------------------------|
A|-0--0--0--0--0--0----------3-|--repeat x4 then repeat under keyboard solo--------------|
E|-----------------------------|---------------------------------------------------------|


Outro (slightly swung)
G|---------------------------------------------------------------------------------------|
D|---3---5---7---7----7---7---7---7---3---5---7----7---7---------------------------------|
A|---------------------------------------------------------------------------------------|
E|-1---3---5---5---5----5---5---5---1---3---5---5---5------------------------------------|

G|-9---7---5---5---5---9---7---5---5---5-------------------------------------------------|
D|---------------------------------------------------------------------------------------|
A|---7---5---3---3---3---7---5---3---3---3-----------------------------------------------|
E|---------------------------------------------------------------------------------------|

and you're done!

| /  slide up
| \  slide down
| h  hammer-on
| p  pull-off
| ~  vibrato
| +  harmonic
| x  Mute note
===============================================================================
            
Submit corrections

comments powered by Disqus
↑ Back to top | Metronomy Bass for The End Of You Too. Lyrics for acoustic guitar and electric guitar. 1 Tablatures and chords are parodies/interpretations of the original songs. You may use it for private study, scholarship, research or language learning purposes only