» » »

The Bay Bass tabs (ver.2)

Artists:  A B C D E F G H I J K L M N O P Q R S T U V W X Y Z # 

The Bay Bass tabs (ver.2)

Metronomy
Rating:
5/5 (1 vote)

Hard to play? Try these video lessons and learn fast.
                I dont mind taking requests for bass tabs and will try my best to get 
them accurate, especially if the song is good and worth doing!
Just leave a message on my profile wall.

-------------------------------------------------------------------------------
                               The Bay - Metronomy
-------------------------------------------------------------------------------


Tuning: Standard

Intro

G|---------------------------------------------------------------------------|
D|---------------------------------------------------------------------------|
A|-4---4---4---4---2---2---2---2---5---5-------7---9---9---9---9-------------|
E|-----------------------------------------5---------------------------------|

G|---------------------------------------------------------------------------|
D|---------------------------------------------------------------------------|
A|-4---4---4---4---2---2---2---2---5---5-------7---9---9---9-7-9-------------|
E|-----------------------------------------5---------------------------------|

G|---6---6---6---6---4---4---4---4---7---7-------9---11---11---11---11-------|
D|-------------------------------------------7-------------------------------|
A|-4---4---4---4---2---2---2---2---5---5-------7---9----9----9----9----------|
E|-----------------------------------------5---------------------------------|

G|---6---6---6---6---4---4---4---4---7---7-------9---11---11---11---11-------|
D|-------------------------------------------7-------------------------------|
A|-4---4---4---4---2---2---2---2---5---5-------7---9----9----9----9----------|
E|-----------------------------------------5---------------------------------|

Verse 1

G|---------------------------------------------------------------------------|
D|---------------------------------------------------------------------------|
A|-4---4---4---4---2---2---2---2---5---5-------7---9---9---9---9-------------|
E|-----------------------------------------5---------------------------------|

G|---------------------------------------------------------------------------|
D|---------------------------------------------------------------------------|
A|-4---4---4---4---2---2---2---2---5---5-------7---9---9---9-7-9-------------|
E|-----------------------------------------5---------------------------------|

G|---6---6---6---6---4---4---4---4---7---7-------9---11---11---11---11-------|
D|-------------------------------------------7-------------------------------|
A|-4---4---4---4---2---2---2---2---5---5-------7---9----9----9----9----------|
E|-----------------------------------------5---------------------------------|

G|---6---6---6---6---4---4---4---4---7---7-------9---11---11---11---11-------|
D|-------------------------------------------7-------------------------------|
A|-4---4---4---4---2---2---2---2---5---5-------7---9----9----9----9----------|
E|-----------------------------------------5---------------------------------|

G|---6---6---6---6---4---4---4---4---7---7-------9---11---11---11---11-------|
D|-------------------------------------------7-------------------------------|
A|-4---4---4---4---2---2---2---2---5---5-------7---9----9----9----9----------|
E|-----------------------------------------5---------------------------------|

G|---6---6---6---6---4---4---4---4---7---7-------9---11---11---11---11-------|
D|-------------------------------------------7-------------------------------|
A|-4---4---4---4---2---2---2---2---5---5-------7---9----9----9----9----------|
E|-----------------------------------------5---------------------------------|

Chorus

G|---7---7-------7---4---4-----------6---6-----------6---6-------------------|
D|-----------5h7-------------2h4-------------4h6-------------4h6-------------|
A|-5---5---5-------2---2---2-----2/4---4---4-----2/4---4---4-----4/----------|
E|---------------------------------------------------------------------------|

G|---7---7-------7---4---4-----------6---6-----------6---6-------------------|
D|-----------5h7-------------2h4-------------4h6-------------4h6-------------|
A|-5---5---5-------2---2---2-----2/4---4---4-----2/4---4---4-----4/----------|
E|---------------------------------------------------------------------------|

G|---7---7-------7---4---4-----------11---11--------11---9---9-------9-------|
D|-----------5h7-------------2h4---------------9h11--------------7h9---------|
A|-5---5---5-------2---2---2-----2/9----9----9---------7---7---7-------------|
E|---------------------------------------------------------------------------|

G|---7---7-------7---4---4-----------11---11--------11---9---9-------9-------|
D|-----------5h7-------------2h4---------------9h11--------------7h9---------|
A|-5---5---5-------2---2---2-----2/9----9----9---------7---7---7-------------|
E|---------------------------------------------------------------------------|

Verse 2

G|---------------------------------------------------------------------------|
D|---------------------------------------------------------------------------|
A|-4---4---4---4---2---2---2---2---5---5-------7---9---9---9---9-------------|
E|-----------------------------------------5---------------------------------|

G|---------------------------------------------------------------------------|
D|---------------------------------------------------------------------------|
A|-4---4---4---4---2---2---2---2---5---5-------7---9---9---9-7-9-------------|
E|-----------------------------------------5---------------------------------|

G|---------------------------------------------------------------------------|
D|---------------------------------------------------------------------------|
A|-4---4---4---4---2---2---2---2---5---5-------7---9---9---9---9-------------|
E|-----------------------------------------5---------------------------------|

G|---------------------------------------------------------------------------|
D|---------------------------------------------------------------------------|
A|-4---4---4---4---2---2---2---2---5---5-------7---9---9---9-7-9-------------|
E|-----------------------------------------5---------------------------------|

G|---6---6---6---6---4---4---4---4---7---7-------9---11---11---11---11-------|
D|-------------------------------------------7-------------------------------|
A|-4---4---4---4---2---2---2---2---5---5-------7---9----9----9----9----------|
E|-----------------------------------------5---------------------------------|

G|---6---6---6---6---4---4---4---4---7---7-------9---11---11---11---11-------|
D|-------------------------------------------7-------------------------------|
A|-4---4---4---4---2---2---2---2---5---5-------7---9----9----9----9----------|
E|-----------------------------------------5---------------------------------|

G|---6---6---6---6---4---4---4---4---7---7-------9---11---11---11---11-------|
D|-------------------------------------------7-------------------------------|
A|-4---4---4---4---2---2---2---2---5---5-------7---9----9----9----9----------|
E|-----------------------------------------5---------------------------------|

G|---6---6---6---6---4---4---4---4---7---7-------9---11---11---11---11-------|
D|-------------------------------------------7-------------------------------|
A|-4---4---4---4---2---2---2---2---5---5-------7---9----9----9----9----------|
E|-----------------------------------------5---------------------------------|


Chorus, Solo and Outro X 3

G|---7---7-------7---4---4-----------6---6-----------6---6-------------------|
D|-----------5h7-------------2h4-------------4h6-------------4h6-------------|
A|-5---5---5-------2---2---2-----2/4---4---4-----2/4---4---4-----4/----------|
E|---------------------------------------------------------------------------|

G|---7---7-------7---4---4-----------6---6-----------6---6-------------------|
D|-----------5h7-------------2h4-------------4h6-------------4h6-------------|
A|-5---5---5-------2---2---2-----2/4---4---4-----2/4---4---4-----4/----------|
E|---------------------------------------------------------------------------|

G|---7---7-------7---4---4-----------11---11--------11---9---9-------9-------|
D|-----------5h7-------------2h4---------------9h11--------------7h9---------|
A|-5---5---5-------2---2---2-----2/9----9----9---------7---7---7-------------|
E|---------------------------------------------------------------------------|

G|---7---7-------7---4---4-----------11---11--------11---9---9-------9-------|
D|-----------5h7-------------2h4---------------9h11--------------7h9---------|
A|-5---5---5-------2---2---2-----2/9----9----9---------7---7---7-------------|
E|---------------------------------------------------------------------------|


| >  hold note
| /  slide up
| \  slide down
| h  hammer-on
| p  pull-off
| ~  vibrato
| +  harmonic
| x  Mute note
===============================================================================
            
Hard to play? Try these video lessons and learn fast. | Correct




comments powered by Disqus
↑ Back to top | Tablatures and chords are parodies/interpretations of the original songs. You may use it for private study, scholarship, research or language learning purposes only