» » »

Radio Ladio Tabs (ver.2)

Artists:  A B C D E F G H I J K L M N O P Q R S T U V W X Y Z # 

Radio Ladio Tabs (ver.2)

Metronomy
Rating:
0/5 (0 votes)

Hard to play? Try these video lessons and learn fast.
                -------------------------------------------------------------------
                            Radio Ladio - Metronomy
-------------------------------------------------------------------


Tuning: Standard


Riff a Rhythm guitar
e|----------------------|
B|----------------------|
G|----14--14----12--10--|
D|----14--14----12--10--| 4 times for the intro and is continued under this
A|-12-12--12----10--8---| synth riff:
E|----------------------|

Riff a synth
e|----------------------------------------------------------------------|
B|----------------------------------------------------------------------|
G|-----7--9-9-10-9-7-9----------9-9-10-9-7-9----12-12--9----14-14--12---|
D|--10------------------9-10-12-----------------------------------------|
A|----------------------------------------------------------------------|
E|----------------------------------------------------------------------|


Riff b Synth
e|-----------------------|
B|-----------10----------|
G|----9---10------9---9--|
D|--7---9-------10---9---| Sounds better slightly palm muted.
A|-----------------------|
E|-----------------------|


Riff b Rhythm Guitar
e|--------------------------------------------------|
B|--------------------------------------------------|
G|--------------------------------------------------|
D|--14-14--7-7--5-5------------7-7--9-9--2-2-----2--|
A|--12-12--5-5--3-3--3-3--3-3--5-5--7-7--0-0--5--0--|
E|-------------------1-1--1-1-----------------3-----|

After 8 Bars Riff b Synth is played up an octave for 4 bars 

Riff b Synth Octave +
e|-----12----13--17----12---12--|
B|--10----12---------13---12----|
G|------------------------------|
D|------------------------------|
A|------------------------------|
E|------------------------------|

While thats playing up an octave this is played underneath.
e|-------------------------------------|
B|-------------------------------------|
G|-------------------------------------|
D|--14-14--12-12--14-14--12--12--------|
A|--12-12--10-10--12-12--10--10--------|
E|-------------------------------------|

Riff c (1)
e|--------------------------------------------------------|
B|--------------------------------------------------------|
G|--------------------------------------------------------|
D|-5-5-5-6-14-14--5-5-5-6-7-7--5-5-5-6--5-5--5-5-5-6------|
A|---------12-12----------5-5-----------3-3----------1-1--|
E|---------------------------------------------------3-3--|

Riff c (2)
e|--------------------------------------------------------|
B|--------------------------------------------------------|
G|--------------------------------------------------------|
D|-5-5-5-6-----5-5-5-6--7-7--5-5-5-6--9-9--5-5-5-6--2-2---|
A|---------3-3----------5-5-----------7-7-----------0-0---|
E|---------1-1--------------------------------------------|

This is then played over Riff c

Riff C Synth
e|-----------------------------------------------15------------|
B|--15-17-15-13-------13-15-17-15-13-------13--------17-20-15--|
G|--------------14--14---------------14--14--12----------------|
D|-------------------------------------------------------------|
A|-------------------------------------------------------------|
E|-------------------------------------------------------------|

e|-----------------------------------------------15--17-20-19--|
B|--15-17-15-13-------13-15-17-15-13-------13------------------|
G|--------------14--14---------------14--14--12----------------|
D|-------------------------------------------------------------|
A|-------------------------------------------------------------|
E|-------------------------------------------------------------|

Then Back into

e|-----------------------|
B|-----------10----------|
G|----9---10------9---9--|
D|--7---9-------10---9---| For 3 Bars
A|-----------------------|
E|-----------------------|

Fourth bar play

e|-----12----13--17----12---12--|
B|--10----12---------13---12----|
G|------------------------------|
D|------------------------------|
A|------------------------------|
E|------------------------------|

And thats continued to play through when shes wailing about being a radio ladio with these chords

e|--------------------------------------------------|
B|--------------------------------------------------|
G|--14-14--7-7--5-5------------7-7--9-9--2-2-----2--|
D|--14-14--7-7--5-5--3-3--3-3--7-7--9-9--2-2--5--2--|
A|--12-12--5-5--3-3--3-3--3-3--5-5--7-7--0-0--5--0--|
E|-------------------1-1--1-1-----------------3-----|
     R A   D I  OOOOOOOOOOOOH! L A  D I  oooooeeuggh?

And so on... :)
            
Hard to play? Try these video lessons and learn fast. | Correct




comments powered by Disqus
↑ Back to top | Tablatures and chords are parodies/interpretations of the original songs. You may use it for private study, scholarship, research or language learning purposes only