>
 >
Radio Ladio

Radio Ladio Bass Tabs

Metronomy - Radio Ladio chords, tabs, tablatures, lyrics

Guitar lessons | Add/correct | Request | Top 50 tabs Artists:  A B C D E F G H I J K L M N O P Q R S T U V W X Y Z 0-9

Radio Ladio Bass Tabs – Metronomy

CD, Sheet music, Poster

Do you like Radio Ladio? Share with your friends now
Bass TabsTabsTabs v2
BAND:Metronomy 
copyright 2011

Bass Tab 
*please note, This is my first tab and I figure this out by ear,
so it may NOT be 100% accurate, but its pretty close.

Start of song 
(8 bars of percussion)

Intro and 1st Verse:
(played along with guitar)
0:10-0:49

G|--------------------------|-
D|-----7-7---5---3---7-7----|-  (X24)
A|--------------------------|-
E|--------------------------|-

Chorus #1
0:50-1:04 (*All notes on G string are slapped*)
G|--------9-7-------5-7-------2-5-------12-10-----------------5-7-------2-5-------------|-
D|-----------------------3-3------------------------9-7---------------------------------|-
A|-------------5-5-----------------------------8-8-------5-5-------7-7------------------|-   (x1) 
E|-----5-5--------------------------1-1--------------------------------------5-5------3-|-   

Post-Chorus
1:05-1:11
G|--------------------------|-
D|-----7-7---5---3---7-7----|-  (X4)
A|--------------------------|-
E|--------------------------|-

Verse 2
1:12-1:42
G|------------------------------------------|------------------------------------------|-
D|---------5-3-------5-3-------5-3------7h--|-------5-3-------5-3-------5-3------------|-
A|--------------5-5-------3-3---------------|------------5-5-------7-7-----------------|-  (x2)
E|----5-5---------------------------1-1-----|--1-1---------------------------5-5--3--5-|-


Pre-Bridge
1:43-1:48
G|--------------------------|-
D|--------------------------|-
A|--------------------------|-
E|-----5-----5----5----5----|-

-BREAK-
Synth solo (vocals: What's your name?x4)

Drum Break

Bridge
RA-DI-OOOOHHH
LA-DI-AAAAHHH
2:00-2:15

G|------------------------------|--------------------------------------|-
D|------------------------------|--------------------------------------|-
A|-----------5-5---3-3----------|-----------5-5---7-7------------------|-  (x1)
E|-----5-5---------------1-1----|-----1-1---------------5-5---3---5----|-

RA-DI-OOOOHHH
LA-DI-AAAAHHH
(Synth kicks in, bassline playes 3 times and then ends)
2:15-3:02 (*All notes on G string are slapped*)
G|--------9-7-------5-7-------2-5-------12-10-----------------5-7-------2-5-------------|-
D|-----------------------3-3------------------------9-7---------------------------------|-
A|-------------5-5-----------------------------8-8-------5-5-------7-7------------------|-   (x3) 
E|-----5-5--------------------------1-1--------------------------------------5-5------3-|- 

Bassline ends here.
Synths finish set.





Comments


Popular Metronomy tabs & chords
1 String Strung Bass Tabs
Boy Racers Bass Tabs
Holiday Bass Tabs
On Dancefloors Bass Tabs
The Look 2 Bass Tabs
Trouble 1 Bass Tabs
The Look Chords
Corinne Tabs
On The Motorway Intro Tabs
Radio Ladio 1 Tabs


Song lyrics



↑ Back to top | Tablatures and chords are parodies/interpretations of the original songs. You may use it for private study, scholarship, research or language learning purposes only
© 2014 AZChords.com Contact us | Privacy policy | DMCA | Add/correct tabs | Request tabs | Top 50 tabs