» » »

Metronomy, Holiday Bass tabs (ver.1)

Artists:  A B C D E F G H I J K L M N O P Q R S T U V W X Y Z # 

Holiday Bass tabs (ver.1)

Metronomy Tabs
 Rating:
4/5 (4 votes)
Holiday lessons Tabs too difficult? Try these video lessons and learn fast
                ************************
||Holiday -- Metronomy||

************************

Intro (Hold each note for 2 measures)
 
G|--------------------------------|
D|--------------------------------|
A|9-------7-------4-------2-------| x1
E|--------------------------------|

Verse

G|--------------------------------|
D|-4-4-4-4-4-4-4-4-9-9-9-9-7-7-7-7|
A|--------------------------------| x8
E|2-2-2-2-2-2-2-2-7-7-7-7-5-5-5-5-|

G|--------------------------------|
D|--------------------------------|
A|9-------7-------4-------2-------| x2
E|--------------------------------|

G|--------------------------------|
D|-4-4-4-4-4-4-4-4-9-9-9-9-7-7-7-7|
A|--------------------------------| x4
E|2-2-2-2-2-2-2-2-7-7-7-7-5-5-5-5-|

Bridge (Listen for the rhythm)

G|--7----7----7-6h7h9p7p6----9----9----9----9--|
D|---7----7-------------------9----9----9----9-|
A|5----5----5--------------7----7----7----7----|
E|---------------------------------------------|

G|--11----11----11----11----6----6----6---6-5-|
D|---11----11----11----11----6----6-----------|
A|9-----9-----9-----9-----4----4----4---\4-3--|
E|--------------------------------------------|

G|--4----4----4--2h4\6p4/2---6----6----6----6--|
D|---4----4-------------------6----6----6----6-|
A|2----2----2--------------4----4----4----4----|
E|---------------------------------------------|

G|--7----7----7----7----9----9----9----9-10|
D|---7----7----7----7----9----9------------|
A|5----5----5----5----7----7----7----\7-8--|
E|-----------------------------------------|

Outro (Play immediately after bridge)

G|--------------------------------|
D|--------------------------------|
A|9-------7-------4-------2-------| x4
E|--------------------------------|

G|----------------|
D|-4-4-4-4-4-4-4-4|
A|----------------| x4
E|2-2-2-2-2-2-2-2-|
            
Submit corrections

comments powered by Disqus
↑ Back to top | Metronomy Bass for Holiday. Lyrics for acoustic guitar and electric guitar. Tablatures and chords are parodies/interpretations of the original songs. You may use it for private study, scholarship, research or language learning purposes only