» » »

Metronomy, Heartbreaker Bass tabs (ver.2)

Artists:  A B C D E F G H I J K L M N O P Q R S T U V W X Y Z # 

Heartbreaker Bass tabs (ver.2)

Metronomy Tabs
Rating:
5/5 (2 votes)
Heartbreaker lessons Tabs too difficult? Try these video lessons and learn fast
                -------------------------------------------------------------------------------
			     HEARTBREAKER - Metronomy
-------------------------------------------------------------------------------


Tuning: EADG

	G|---3-----6---5---5-5-----3-----6-------5-5-3---|
	D|---------------------------------------------6-|   1x intro and midway
	A|-1---1/4---3---3-------1---1/4---3---3---------|  
	E|-----------------------------------------------|

        G|----------10--10-8----------6---5--------------|
	D|---6--------------10---------------------------|  
	A|------0/8--------------13\4---3----------------|  repeat several times after first part
	E|-4---------------------------------------------|

| /  slide up
| \  slide down
| h  hammer-on
| p  pull-off
| ~  vibrato
| +  harmonic
| x  Mute note
===============================================================================
            
Submit corrections

comments powered by Disqus
↑ Back to top | Metronomy Bass for Heartbreaker. Lyrics for acoustic guitar and electric guitar. Tablatures and chords are parodies/interpretations of the original songs. You may use it for private study, scholarship, research or language learning purposes only