» » »

Metronomy, Heartbreaker Bass tabs (ver.1)

Artists:  A B C D E F G H I J K L M N O P Q R S T U V W X Y Z # 

Heartbreaker Bass tabs (ver.1)

Metronomy Tabs
Rating:
4/5 (6 votes)
Heartbreaker lessons Tabs too difficult? Try these video lessons and learn fast
                I dont mind taking requests for bass tabs and will try my best to get 
them accurate, especially if the song is good and worth doing!
Just leave a message on my profile wall.

-----------------------------------------------------------------------------
			   Heartbraker - Metronomy
-----------------------------------------------------------------------------


Tuning: Standard

Ive worked most of this out from what they play on videos of acoustic sessions and gigs.
takes quite a while to get it spot on, because there's a lot of moving up and down the
neck quickly. There may be a simpler way of playing it, but this is how they seem to do it when
i've watched them...

Intro/Fill

G|---3------6---5------5-5----3------6--------5-5-3-----|
D|-------------------------------------------------5----|  X 1
A|-1---1//4---3---1//3------1---1//4--3--1//3-----------|
E|------------------------------------------------------|

G|-----------10-10-8----------6---3---------------------|
D|---6---------------10---------------------------------|  X 10 (first time)
A|-----13\\8-------------3//4---3-----------------------|  X 2  (second time)
E|-4----------------------------------------------------|

Verse

G|-----------------------------------------------|
D|-----------------------------------------------|
A|--------------------8--8-8-8-------------------|
E|-1--1-1-1//9--9-9-9----------8--8-8-8-9--9-9-9-|

G|-----------------------------------------------|
D|-----------------------------------------------|
A|-8--8-8-8//11--11-11-11\\8--8-8-8--------------|
E|-----------------------------------------------|

G|-----------------------------------------------|
D|-----------------------------------------------|
A|----------8--8-8-8//11--11-11-11\\8--8-8-8-----|
E|-8--8-8-8--------------------------------------|

G|-----------------------------------------------|
D|-----------------------------------------------|
A|----------8--8-8-8//11--11-11-11\\8--8-8-8-----|
E|-9--9-9-9--------------------------------------|

Chorus

G|--------------------------------------------------|
D|--------------------------------------------------|
A|-----------------------8--8-8-8-------------------|
E|-8\\1--1-1-1//9--9-9-9----------8--8-8-8-9--9-9-9-|

G|--------------------------------------------------|
D|----------6--6-6-6h8------------------------------|
A|-8--8-8-8------------8--8-8-8---------------------|
E|--------------------------------------------------|

--- Order ---

Intro/Fill  X 1
Verse  X 1
Chorus  X 2
Intro/Fill  X 1
Verse  X 2
REST
Chorus  X 4

| /  slide up
| \  slide down
| h  hammer-on

=============================================================================
            

comments powered by Disqus
↑ Back to top | Metronomy Bass for Heartbreaker. Lyrics for acoustic guitar and electric guitar. Tablatures and chords are parodies/interpretations of the original songs. You may use it for private study, scholarship, research or language learning purposes only