>
 >
Corinne 1

Corinne 1 Guitar Tabs

Metronomy - Corinne 1 chords, tabs, tablatures, lyrics

Guitar lessons | Add/correct | Request | Top 50 tabs Artists:  A B C D E F G H I J K L M N O P Q R S T U V W X Y Z 0-9

Corinne 1 Guitar Tabs – Metronomy

CD, Sheet music, Poster

Do you like Corinne 1? Share with your friends now
Bass TabsTabsTabs v2
Tempo = 140
Guitar

Legend
L - tied note
x - dead note
h - hammer on/pull off
b - bend
s - slide
~ - vibrato
g - ghost note
> - accentuated note
t - trill
M - palm mute
. - staccato
P - popping (bass)
S - slapping (bass)
+ - tapping
W - wide vibrato
< - fade in
w - whammy bar
= - tremolo picking
v - brush up
^ - brush down
V - pick stroke up
n - pick stroke down


E |----------------------------|----------------------------|
B |----------------------------|----------------------------|
G |----------------------------|----------------------------|
D |--4--4--4--4--4--4--4--4----|--6--6--6--6--8--8--8--8----|
A |--2--2--2--2--2--2--2--2----|--4--4--4--4--6--6--6--6----|
E |----------------------------|----------------------------|


----------------------------|----------------------------|
----------------------------|----------------------------|
----------------------------|----------------------------|
--------------7--7--7--7----|--4--4--4--4--4--4--4--4----|
--3--3--3--3--5--5--5--5----|--2--2--2--2--2--2--2--2----|
--1--1--1--1----------------|----------------------------|


----------------------------|----------------------------|
----------------------------|----------------------------|
----------------------------|----------------------------|
--6--6--6--6----------------|----------------------------|
--4--4--4--4--6--6--6--6----|--8--8--8--8--8--8--8--8----|
--------------4--4--4--4----|--6--6--6--6--6--6--6--6----|


----------------------------|----------------------------|
----------------------------|----------------------------|
----------------------------|----------------------------|
--4--4--4--4--4--4--4--4----|--6--6--6--6--8--8--8--8----|
--2--2--2--2--2--2--2--2----|--4--4--4--4--6--6--6--6----|
----------------------------|----------------------------|


----------------------------|----------------------------|
----------------------------|----------------------------|
----------------------------|----------------------------|
--10-10-10-10-7--7--7--7----|--4--4--4--4--4--4--4--4----|
--8--8--8--8--5--5--5--5----|--2--2--2--2--2--2--2--2----|
----------------------------|----------------------------|


----------------------------|----------------------------|
----------------------------|----------------------------|
----------------------------|----------------------------|
--6--6--6--6----------------|----------------------------|
--4--4--4--4--6--6--6--6----|--8--8--8--8--8--8--8--8----|
--------------4--4--4--4----|--6--6--6--6--6--6--6--6----|


----------------------------|----------------------------|
----------------------------|----------------------------|
----------------------------|----------------------------|
--4--4--4--4--4--4--4--4----|--6--6--6--6--8--8--8--8----|
--2--2--2--2--2--2--2--2----|--4--4--4--4--6--6--6--6----|
----------------------------|----------------------------|


----------------------------|----------------------------|
----------------------------|----------------------------|
----------------------------|----------------------------|
--8--8--8--8----------------|--7--7--7--7--4--4--4--4----|
--6--6--6--6--3--3--3--3----|--5--5--5--5--2--2--2--2----|
--------------1--1--1--1----|----------------------------|


----------------------------|----------------------------|
----------------------------|----------------------------|
----------------------------|----------------------------|
--4--4--4--4--6--6--6--6----|----------------------------|
--2--2--2--2--4--4--4--4----|--6--6--6--6--6--6--6--6----|
----------------------------|--4--4--4--4--4--4--4--4----|


----------------------------|----------------------------|
----------------------------|----------------------------|
----------------------------|----------------------------|
----------------------------|--4--4--4--4--4--4--4--4----|
--8--8--8--8--8--8--8--8----|--2--2--2--2--2--2--2--2----|
--6--6--6--6--6--6--6--6----|----------------------------|


----------------------------|----------------------------|
----------------------------|----------------------------|
----------------------------|----------------------------|
--6--6--6--6--8--8--8--8----|--8--8--8--8--10-10-10-10---|
--4--4--4--4--6--6--6--6----|--6--6--6--6--8--8--8--8----|
----------------------------|----------------------------|


----------------------------|----------------------------|
----------------------------|----------------------------|
----------------------------|----------------------------|
--7--7--7--7--4--4--4--4----|--4--4--4--4--6--6--6--6----|
--5--5--5--5--2--2--2--2----|--2--2--2--2--4--4--4--4----|
----------------------------|----------------------------|


----------------------------|----------------------------|
----------------------------|----------------------------|
----------------------------|----------------------------|
----------------------------|----------------------------|
--6--6--6--6--6--6--6--6----|--8--8--8--8--8--8--8--8----|
--4--4--4--4--4--4--4--4----|--6--6--6--6--6--6--6--6----|


----------------------------|----------------------------|
----------------------------|----------------------------|
----------------------------|----------------------------|
--4--4--4--4--4--4--4--4----|--6--6--6--6--8--8--8--8----|
--2--2--2--2--2--2--2--2----|--4--4--4--4--6--6--6--6----|
----------------------------|----------------------------|


----------------------------|----------------------------|
----------------------------|----------------------------|
----------------------------|----------------------------|
--------------7--7--7--7----|--4--4--4--4--4--4--4--4----|
--3--3--3--3--5--5--5--5----|--2--2--2--2--2--2--2--2----|
--1--1--1--1----------------|----------------------------|


----------------------------|----------------------------|
----------------------------|----------------------------|
----------------------------|----------------------------|
--6--6--6--6----------------|----------------------------|
--4--4--4--4--6--6--6--6----|--8--8--8--8--8--8--8--8----|
--------------4--4--4--4----|--6--6--6--6--6--6--6--6----|


----------------------------|----------------------------|
----------------------------|----------------------------|
----------------------------|----------------------------|
--4--4--4--4--4--4--4--4----|--6--6--6--6--8--8--8--8----|
--2--2--2--2--2--2--2--2----|--4--4--4--4--6--6--6--6----|
----------------------------|----------------------------|


----------------------------|----------------------------|
----------------------------|----------------------------|
----------------------------|----------------------------|
--10-10-10-10-7--7--7--7----|--4--4--4--4--4--4--4--4----|
--8--8--8--8--5--5--5--5----|--2--2--2--2--2--2--2--2----|
----------------------------|----------------------------|


----------------------------|----------------------------|----|----|----|----|
----------------------------|----------------------------|----|----|----|----|
----------------------------|----------------------------|----|----|----|----|
--6--6--6--6----------------|----------------------------|----|----|----|----|
--4--4--4--4--6--6--6--6----|--8--8--8--8--8--8--8--8----|----|----|----|----|
--------------4--4--4--4----|--6--6--6--6--6--6--6--6----


If you want to play the synth-chorus:


E |----|----|----|----|----|----|----|----|----|----|----|----|
B |----|----|----|----|----|----|----|----|----|----|----|----|
G |----|----|----|----|----|----|----|----|----|----|----|----|
D |----|----|----|----|----|----|----|----|----|----|----|----|
A |----|----|----|----|----|----|----|----|----|----|----|----|
E |----|----|----|----|----|----|----|----|----|----|----|----|


--7--------------7----------|--9-----------11------------|
--------7-----------7-------|--------9-----------11------|
-----------8-----------8----|-----------10----------11---|
----------------------------|----------------------------|
----------------------------|----------------------------|
----------------------------|----------------------------|


-----11---------------------|-----------7--6-----4-------|
--------11----------9-------|-----6--9--------------6----|
-----------11-10-------10---|--7-------------------------|
----------------------------|----------------------------|
----------------------------|----------------------------|
----------------------------|----------------------------|


-----6--4-----4-------------|-----------6-----7--6--4----|
-----------6--------7--6----|--4-----7-------------------|
----------------------------|----------------------------|
----------------------------|----------------------------|
----------------------------|----------------------------|
----------------------------|----------------------------|


--------4-----------4--6----|--7--------------7----------|
--6--------3-----3----------|--------7-----------7-------|
----------------------------|-----------8-----------8----|
----------------------------|----------------------------|
----------------------------|----------------------------|
----------------------------|----------------------------|


--9-----------11------------|-----11---------------------|
--------9-----------11------|--------11----------9-------|
-----------10----------11---|-----------11-10-------10---|
----------------------------|----------------------------|
----------------------------|----------------------------|
----------------------------|----------------------------|


-----------7--6-----4-------|-----6--4-----4-------------|
-----6--9--------------6----|-----------6--------7--6----|
--7-------------------------|----------------------------|
----------------------------|----------------------------|
----------------------------|----------------------------|
----------------------------|----------------------------|


-----------6-----7--6--4----|--------4-----------4--6----|----|----|----|----|
--4-----7-------------------|--6--------3-----3----------|----|----|----|----|
----------------------------|----------------------------|----|----|----|----|
----------------------------|----------------------------|----|----|----|----|
----------------------------|----------------------------|----|----|----|----|
----------------------------|----------------------------|----|----|----|----|


----|----|----|----|----|----|----|----|----|----|----|----|----|----||
----|----|----|----|----|----|----|----|----|----|----|----|----|----||
----|----|----|----|----|----|----|----|----|----|----|----|----|----||
----|----|----|----|----|----|----|----|----|----|----|----|----|----||
----|----|----|----|----|----|----|----|----|----|----|----|----|----||
----|----|----|----|----|----|----|----|----|----|----|----|----|----||





Comments


Popular Metronomy tabs & chords
Everything Goes My Way Bass Tabs
Holiday Bass Tabs
The Look 1 Bass Tabs
Trouble Bass Tabs
Im Aquarius Chords
Not Made For Love Chords
The Bay 1 Chords
Hearbreaker Tabs
The Look Tabs
The Bay Ukulele


Song lyrics



↑ Back to top | Tablatures and chords are parodies/interpretations of the original songs. You may use it for private study, scholarship, research or language learning purposes only
© 2014 AZChords.com Contact us | Privacy policy | DMCA | Add/correct tabs | Request tabs | Top 50 tabs