>
 >
Spandex Enormity 1

Spandex Enormity 1 Guitar Tabs

Method Of Destruction - Spandex Enormity 1 chords, tabs, tablatures, lyrics

Guitar lessons | Add/correct | Request | Top 50 tabs Artists:  A B C D E F G H I J K L M N O P Q R S T U V W X Y Z 0-9

Spandex Enormity 1 Guitar Tabs – Method Of Destruction

CD, Sheet music, Poster

Do you like Spandex Enormity 1? Share with your friends now
TabsTabs v2
Intro 

Guitar: 1

0:00 - 0:53

e------------------------------------------------|
B------------------------------------------------|
G------------------------------------------------|
D---------------------------9-(9)-------9-(9)----| x 2
A--4-4--4-4--4-4--4-4--2-2--7-(7)--2-2--7-(7)----|
E--2-2--2-2--2-2--2-2--0-0---------0-0-----------|


Guitar: 2 (Palm Mute Entire Thing) 

0:17 - 0:53

e-----------------------------------------------------|
B-----------------------------------------------------|
G-----------------------------------------------------|
D-----------------------------------------------------|
A-------55-4-2------55-4-2------55-4-2------55-4-2----|
E--2-2---------2-2---------2-2---------2-2------------|  \
                                                            x4
e-----------------------------------------------------|  /
B-----------------------------------------------------|
G-----------------------------------------------------|
D-----------------------------------------------------|
A-------55-4-2------55-4-2------55-4-2------55-4-2----|
E--0-0---------0-0---------0-0---------0-0------------|


Main Riff: 

0:54 - 1:21

e------------------------------------------------------------------| 
B------------------------------------------------------------------| 
G------------------------------------------------------------------|
D--5-5-------------5-5--------------5-5-------------5-5------------| x3
A--3-3--2--4-4--2--3-3--2--4-2-5-2--3-3--2--4-4--2--3-3--2--4-5----|
E-------0--2-2--0-------0--2-0-3-0-------0--2-2--0-------0--2-3----|

1:22 - 1:35

e-------------------------------------| 
B-------------------------------------| 
G-------------------------------------|
D--5-5-------------5-5----------------| x3
A--3-3--2--4-4--2--3-3--2--4-2-5-2----|
E-------0--2-2--0-------0--2-0-3-0----|

1:36 - 1:42

e---------------------------------------| 
B---------------------------------------| 
G---------------------------------------|
D--5-5-------------5-5------------------|
A--3-3--2--4-4--2--3-3--2--4-2-5-(5)----|
E-------0--2-2--0-------0--2-0-3-(3)----|


Chorus:

1:43 - 1:57

e-----------------|
B-----------------|
G-----------------|
D-----8-7-5--9----| x 6
A--7--6-5-3--7----|
E--5--------------| 
                     
e-----------------|
B-----------------|
G-----------------|
D-----------------| x 4
A--2--8-7-5--9----|
E--0--6-5-3--7----|


Main Riff: 

1:58 - 2:24

e------------------------------------------------------------------| 
B------------------------------------------------------------------| 
G------------------------------------------------------------------|
D--5-5-------------5-5--------------5-5-------------5-5------------| x3
A--3-3--2--4-4--2--3-3--2--4-2-5-2--3-3--2--4-4--2--3-3--2--4-5----|
E-------0--2-2--0-------0--2-0-3-0-------0--2-2--0-------0--2-3----|

2:25 - 2:37

e-------------------------------------| 
B-------------------------------------| 
G-------------------------------------|
D--5-5-------------5-5----------------| x3
A--3-3--2--4-4--2--3-3--2--4-2-5-2----|
E-------0--2-2--0-------0--2-0-3-0----|

2:38 - 2:43

e---------------------------------------| 
B---------------------------------------| 
G---------------------------------------|
D--5-5-------------5-5------------------|
A--3-3--2--4-4--2--3-3--2--4-2-5-(5)----|
E-------0--2-2--0-------0--2-0-3-(3)----|


Chorus: 2:46 - 2:58

e-----------------|
B-----------------|
G-----------------|
D-----8-7-5--9----| x 6
A--7--6-5-3--7----|
E--5--------------| 
                     
e-----------------|
B-----------------|
G-----------------|
D-----------------| x 4
A--2--8-7-5--9----|
E--0--6-5-3--7----|



Main Riff: 

2:59 - 3:25

e------------------------------------------------------------------| 
B------------------------------------------------------------------| 
G------------------------------------------------------------------|
D--5-5-------------5-5--------------5-5-------------5-5------------| x3
A--3-3--2--4-4--2--3-3--2--4-2-5-2--3-3--2--4-4--2--3-3--2--4-5----|
E-------0--2-2--0-------0--2-0-3-0-------0--2-2--0-------0--2-3----|

3:26 - 3:34

e------------------------------------------------------| 
B------------------------------------------------------| 
G------------------------------------------------------|
D--5-5-------------5-5--------------5-5----------------|
A--3-3--2--4-4--2--3-3--2--4-2-5-2--3-3--2--4--5--4----|
E-------0--2-2--0-------0--2-0-3-0-------0--2--3--2----|

3:35 - 3:42

e-------------------------------------------------------| 
B-------------------------------------------------------| 
G-------------------------------------------------------|
D--5-5-------------5-5--------------5-5------------5----|
A--3-3--2--4-4--2--3-3--2--4-2-5-2--3-3--2-4-2-5-2-3----|
E-------0--2-2--0-------0--2-0-3-0-------0-2-0-3-0------|

3:43 - 3:51

e----------------------------------|
B----------------------------------|
G----------------------------------|
D--2-2----9-9----2-2----9-5-8-4----| x 2
A--0-0-2--7-7-2--0-0-2--7-3-6-2----|
E------0------0------0-------------|

3:52 - 4:02

e------------------------------------------------------------| 
B------------------------------------------------------------| 
G------------------------------------------------------------|
D--5-5-------------5-5--------------5-5-------------5-(5)----|
A--3-3--2--4-4--2--3-3--2--4-2-5-2--3-3--2-4-2-5-2--3-(3)----|
E-------0--2-2--0-------0--2-0-3-0-------0-2-0-3-0-----------|

4:03 - 4:21

(Play slow)

e---------------------------------------------------------------------| 
B---------------------------------------------------------------------| 
G---------------------------------------------------------------------|
D--5-5-------------5-5--------------5-5-------------5-5---------------|
A--3-3--2--4-4--2--3-3--2--4-2-5-2--3-3--2--4-4--2--3-3--2--4-2-5-2---|
E-------0--2-2--0-------0--2-0-3-0-------0--2-2--0-------0--2-0-3-0---|

4:22 - 4:36

(Play slow)

e-----------------------------------------------------| 
B-----------------------------------------------------| 
G-----------------------------------------------------|
D--5--------------5-5--------------5-5----------------|
A--3--2--4-2-5-2--3-3--2--4-2-5-2--3-3--2--4--5--4----|
E-----0--2-0-3-0-------0--2-0-3-0-------0--2--3--2----|

Chorus: 4:38 - 4:51

e-----------------|
B-----------------|
G-----------------|
D-----8-7-5--9----| x 6
A--7--6-5-3--7----|
E--5--------------| 
                     
e-----------------|
B-----------------|
G-----------------|
D-----------------| x 4
A--2--8-7-5--9----|
E--0--6-5-3--7----|


Main Riff: 4:52 - 5:09

e------------------------------------------------------------------| 
B------------------------------------------------------------------| 
G------------------------------------------------------------------|
D--5-5-------------5-5--------------5-5-------------5-5------------| x 2
A--3-3--2--4-4--2--3-3--2--4-2-5-2--3-3--2--4-4--2--3-3--2--4-5----|
E-------0--2-2--0-------0--2-0-3-0-------0--2-2--0-------0--2-3----|

5:10 - 5:28 (end of song)

e-----------------------------------------------------------------| 
B-----------------------------------------------------------------| 
G-----------------------------------------------------------------|
D--5-5-------------5-5--------------5-5-------------5-(5)----4----|
A--3-3--2--4-4--2--3-3--2--4-2-5-2--3-3--2-4-2-5-2--3-(3)----2----|
E-------0--2-2--0-------0--2-0-3-0-------0-2-0-3-0----------------|


Aye! Ask me ta yodel!





Comments


Popular Method Of Destruction tabs & chords
Aids Tabs
Bubble Butt Tabs
Dead Men Tabs
Short But Sweet Tabs
Spandex Enormity Tabs


Song lyrics



↑ Back to top | Tablatures and chords are parodies/interpretations of the original songs. You may use it for private study, scholarship, research or language learning purposes only
© 2014 AZChords.com Contact us | Privacy policy | DMCA | Add/correct tabs | Request tabs | Top 50 tabs