>
 >
Aids

Aids Guitar Tabs

Method Of Destruction - Aids chords, tabs, tablatures, lyrics

Guitar lessons | Add/correct | Request | Top 50 tabs Artists:  A B C D E F G H I J K L M N O P Q R S T U V W X Y Z 0-9

Aids Guitar Tabs – Method Of Destruction

CD, Sheet music, Poster

Do you like Aids? Share with your friends now
Tabs
Song - A.I.D.S (Analy Inflicted Death Sentence)
Band - M.O.D (Method Of Destruction)
Album - U.S.A For M.O.D


Ok this is a tab I just got done doing I didnt really work on it much but the song is 
much using the same riffs as some of the megadeth songs out there that I know of. The tab 
good to me.
If you have anything to add please put it in a comment or message me and give me corrections.

Here It Is
__________


(Intro:                              x2)
E---------|--------|---------|---------|----------|
B---------|--------|---------|---------|----------|
G---------|--------|---------|---------|----------|
D-9-------|-9-8-\--|-9-------|-9-8/-11-|-9--------|
A-7-------|-7-6-\--|-7-------|-7-6/--9-|-7--------|
E---------|--------|---------|---------|----------|

Verse:
E-----|-------------------------|-------------------|
B-----|-------------------------|-------------------|
G-----|-------------------------|-------------------|
D-\\\-|-7-7-7-6-----------------|-7-7-7-6-----------|
A-\\\-|-5-5-5-4-----------------|-5-5-5-4-----------|
E-\\\-|---------000-0-000-0-000-|-------------------|
                PM----------------------------------|
  ^Pick Scrape fast from the bridge then slow down when you get to the 12th or 8th fret 
to the song for accuracy)

Pre-Chorus
E---------------------------------------------------|
B---------------------------------------------------|
G---------------------------------------------------|
D------------5-6------------------------------------|
A-7-6---7-6--3-4-7--7--7--7-------------------------|
E-5-4-0-5-4-0----5--5--5--5-------------------------|
PM--------------------------------------------------|

E-----------------------------------|---------------|
B-----------------------------------|---------------|
G-----------------------------------|-------6-------|
D-7----7----7-----------------------|-5-----6-------|
A-5-55-5-55-5-55575--7----7----7----|-5-575-4-575---|
E------------------7-5-55-5-55-5-54-|-3----7-----7--|
    PM   PM   PM----   PM   PM   PM     PM--  PM----|


Well thats it listen to the song for EXACT measurments and how fast/slow to play the riffs

If anyone has any corrections let me see em in the comments or message me.
i want this as accurate as possible





Comments


Popular Method Of Destruction tabs & chords
Bubble Butt Tabs
Dead Men Tabs
Short But Sweet Tabs
Spandex Enormity Tabs
Spandex Enormity 1 Tabs


Song lyrics



↑ Back to top | Tablatures and chords are parodies/interpretations of the original songs. You may use it for private study, scholarship, research or language learning purposes only
© 2014 AZChords.com Contact us | Privacy policy | DMCA | Add/correct tabs | Request tabs | Top 50 tabs