>
 >
Wiskey In The Jar

Wiskey In The Jar Guitar Tabs

Metallica - Wiskey In The Jar chords, tabs, tablatures, lyrics

Guitar lessons | Add/correct | Request | Top 50 tabs Artists:  A B C D E F G H I J K L M N O P Q R S T U V W X Y Z 0-9

Wiskey In The Jar Guitar Tabs – Metallica

CD, Sheet music, Poster

Do you like Wiskey In The Jar? Share with your friends now
Tabs
Words:          Philip Parris Lynott, Brian Michael Downey and Eric Bell
Music:          Philip Parris Lynott, Brian Michael Downey and Eric Bell          
Tempo:          Moderate Rock, 136
                (check for more quality tabs, and scanned tabs)
Last edit:      26-Nov-2001
Parts:          Just play everything 'downstairs'
Missing:        Nothing
Other tabs 	
made by me:     Metallica - Enter Sandman
                Metallica - For Whom The Bell Tolls
                Metallica - Motorbreath
                Metallica - Orion
                Metallica - The Unforgiven

A total revamp from Metallica. You will know what I mean when you heard the orginal
song. Again a easy song to play, even the solo. I find this a good song but it doesn't 
'sound' like Metallica. Maybe it's because it is a cover. Well, that is what I think of 
it.

If you want to add this tab on your site then please leave the tab as it is. If you are not sure
that you have the orginal tab mail me. Also, if somebody is using my tab then please mail me.

If you see any white lines between the guitar lines, then make sure you resolution is 
1024 x 768 or greater and that you are using Notepad.

Well, let's play this song.



 4/4
  Gtr I
                                                ~~~
                           |-3--|
  W            H    E  E E S S  S   E E  E E E  Q.
|------------|--------------------|-----------------|
|------------|--------------------|-8---------------|
|------------|--------\7-7-7h9h11-|---9-11-7-9S12---|
|------------|--------------------|-----------------|
|------------|--------------------|-----------------|
|------------|--------------------|-----------------|
|
|
| Gtr II
| H    q  q    E E E E E E E E      E E E E E E E E
|------------|--------------------|-----------------|
|------------|--------------------|-----------------|
|------------|--------------------|-----------------|
|------5--4--|-2-2---2-2-2---2----|-2-2---2-2-2---5-|
|------5--4--|-2-2---2-2-2---2----|-2-2---2-2-2---5-|
|------3--2--|-0-0---0-0-0---0----|-0-0---0-0-0---3-|


  Gtr I
    ~~~~~~~~~~~                                           ~~~~~~~~~~~
                    |-3--|                                                |-3--|
    H      +E   E E S S  S   E E  E E E  E  +E.  S        H      +E   E E S S  S
|--------------------------|--------------------------|--------------------------|
|--------------------------|-8------------------------|--------------------------|
|-(12)----(12)-\7-7-7h9h11-|---9-11-7-9S12-(12)-12b14r|-(12)----(12)-\7-7-7h9h11-|
|--------------------------|--------------------------|--------------------------|
|--------------------------|--------------------------|--------------------------|
|--------------------------|--------------------------|--------------------------|
|
|
| Gtr II
| E E E E E E E E            E E E E q  q      E E E E E E E E
|--------------------------|--------------------------|--------------------------|
|--------------------------|--------------------------|--------------------------|
|--------------------------|--------------------------|--------------------------|
|-5-5---5-5-5---5----------|-5-5---5-5--4-------------|-2-2---2-2-2---2----------|
|-5-5---5-5-5---5----------|-5-5---5-5--4-------------|-2-2---2-2-2---2----------|
|-3-3---3-3-3---3----------|-3-3---3-3--2-------------|-0-0---0-0-0---0----------|


  Gtr I
              ~~~~~~~~~~~~~~~~~~~~
                                      |-3-|
  E E  E E E  Q.       H      +E  E E S S S   E E E E a E Q.
|------------------|------------------------|------------------|
|-8----------------|------------------------|-3----------------|
|---9-11-7-9S12----|-(12)----(12)---0-0h2h4-|---0-2-0-2S4-0----|
|------------------|--------------5---------|------------------|
|------------------|------------------------|------------------|
|------------------|------------------------|------------------|
|
|
| Gtr II
| E E E E E E E E    E E E E E E E E          E E E E E E E E
|------------------|------------------------|------------------|
|------------------|------------------------|------------------|
|------------------|------------------------|------------------|
|-2-2---2-2-2---5--|-5-5---5-5-5---5--------|-5-5---5-5-5---5--|
|-2-2---2-2-2---5--|-5-5---5-5-5---5--------|-5-5---5-5-5---5--|
|-0-0---0-0-0---3--|-3-3---3-3-3---3--------|-3-3---3-3-3---3--|






  Gtr II            Gtrs I, II
  E E E E E E E E   E E E E E E E E   E E E E E E E E
|-----------------|-----------------|-----------------|
|-----------------|-----------------|-----------------|
|-----------------|-----------------|-----------------|
|-5-5---5-5-5---5-|-5-5---5-5-5---2-|-2-2---2-2-2---2-|
|-5-5---5-5-5---5-|-5-5---5-5-5---2-|-2-2---2-2-2---2-|
|-3-3---3-3-3---3-|-3-3---3-3-3---0-|-0-0---0-0-0---0-|


  Gtrs I, II
  E E E E E E E E   E E E E E E E E   E E E E E E E E
|-----------------|-----------------|-----------------|
|-----------------|-----------------|-----------------|
|---------------5-|-5-5---5-5-5---5-|-5-5---5-5-5-----|
|-2-2---2-2-2---5-|-5-5---5-5-5---5-|-5-5---5-5-5---5-|
|-2-2---2-2-2---3-|-3-3---3-3-3---3-|-3-3---3-3-3---5-|
|-0-0---0-0-0-----|-----------------|---------------3-|


  Gtrs I, II
  E E E E E E E E   E E E E E E E E   E E E E E E E E
|-----------------|-----------------|-----------------|
|-----------------|-----------------|-----------------|
|-----------------|-----------------|-----------------|
|-5-5---5-5-5---5-|-5-5---5-5-5---5-|-5-5---5-5-5---5-|
|-5-5---5-5-5---5-|-5-5---5-5-5---5-|-5-5---5-5-5---5-|
|-3-3---3-3-3---3-|-3-3---3-3-3---3-|-3-3---3-3-3---3-|


  Gtrs I, II
  E E E E q  q    E E E E E E E E   E E E E E E E E
|---------------|-----------------|-----------------|
|---------------|-----------------|-----------------|
|---------------|-----------------|---------------5-|
|-5-5---5-5--4--|-2-2---2-2-2---2-|-2-2---2-2-2---5-|
|-5-5---5-5--4--|-2-2---2-2-2---2-|-2-2---2-2-2---3-|
|-3-3---3-3--2--|-0-0---0-0-0---0-|-0-0---0-0-0-----|


  Gtrs I, II
  E E E E E E E E   E E E E E E E E   E E E E E E E E
|-----------------|-----------------|-----------------|
|-----------------|-----------------|-----------------|
|-5-5---5-5-5---5-|-5-5---5-5-5-----|-----------------|
|-5-5---5-5-5---5-|-5-5---5-5-5---5-|-5-5---5-5-5---5-|
|-3-3---3-3-3---3-|-3-3---3-3-3---5-|-5-5---5-5-5---5-|
|-----------------|---------------3-|-3-3---3-3-3---3-|






  Gtr I
                                   ~~~~~~~~~~~~~~~~~~~~~
              |-3--|                                         |-3--|
  H    E  E E S S  S   E E  E E E  Q.        H      +E   E E S S  S
|--------------------|-------------------|--------------------------|
|--------------------|-8-----------------|--------------------------|
|--------\7-7-7h9h11-|---9-11-7-9S12-----|-(12)----(12)-\7-7-7h9h11-|
|--------------------|-------------------|--------------------------|
|--------------------|-------------------|--------------------------|
|--------------------|-------------------|--------------------------|


  Gtr II
  E E E E q  q         E E E E E E E E     E E E E E E E E
|--------------------|-------------------|--------------------------|
|--------------------|-------------------|--------------------------|
|--------------------|-------------------|--------------------------|
|-5-5---5-5--4-------|-2-2---2-2-2---2---|-2-2---2-2-2---5----------|
|-5-5---5-5--4-------|-2-2---2-2-2---2---|-2-2---2-2-2---5----------|
|-3-3---3-3--2-------|-0-0---0-0-0---0---|-0-0---0-0-0---3----------|


  Gtr I
                               ~~~~~~~~~~~                                  ~
  E E  E E E  E  +E.  S        H      +E   E E E    E      E   E      E  E Q  S  S
|--------------------------|---------------------|---------------------------------|
|-8------------------------|-------------------8-|-10b12==10r-10b12==10r10-8--8h10p|
|---9-11-7-9S12-(12)-12b14r|=(12)----(12)-\7-9---|---------------------------------|
|--------------------------|---------------------|---------------------------------|
|--------------------------|---------------------|---------------------------------|
|--------------------------|---------------------|---------------------------------|
|
|
| Gtr II
| E E E E E E E E            E E E E q  q          E E E E E E  E E
|--------------------------|---------------------|---------------------------------|
|--------------------------|---------------------|---------------------------------|
|--------------------------|---------------------|---------------------------------|
|-5-5---5-5-5---5----------|-5-5---5-5--4--------|-2-2---2-2-2----2----------------|
|-5-5---5-5-5---5----------|-5-5---5-5--4--------|-2-2---2-2-2----2----------------|
|-3-3---3-3-3---3----------|-3-3---3-3--2--------|-0-0---0-0-0----0----------------|


  Gtr I
   ~~
                  |-3-|
   Q.  E +E   E E S S S   E E E E S   +S  Q.      W
|-----------------------|----------------------|------------------|
|--8---8-(8)------------|-3--------------------|------------------|
|---------------0-0h2h4-|---0-2-0-2b3r(2)p0----|------------------|
|------------\5---------|----------------------|------------------|
|-----------------------|----------------------|------------------|
|-----------------------|----------------------|------------------|
|
|
| Gtr II
| E E E E E E E E         E E E E E E E E        E E E E E E E E
|-----------------------|----------------------|------------------|
|-----------------------|----------------------|------------------|
|-----------------------|----------------------|------------------|
|-2-2---2-2-2---5-------|-5-5---5-5-5---5------|-5-5---5-5-5---5--|
|-2-2---2-2-2---5-------|-5-5---5-5-5---5------|-5-5---5-5-5---5--|
|-0-0---0-0-0---3-------|-3-3---3-3-3---3------|-3-3---3-3-3---3--|




  Gtrs I, II
  E E E E E E E E   E E E E E E E E   E E E E E E E E
|-----------------|-----------------|-----------------|
|-----------------|-----------------|-----------------|
|-----------------|-----------------|-----------------|
|-5-5---5-5-5---5-|-5-5---5-5-5---2-|-2-2---2-2-2---2-|
|-5-5---5-5-5---5-|-5-5---5-5-5---2-|-2-2---2-2-2---2-|
|-3-3---3-3-3---3-|-3-3---3-3-3---0-|-0-0---0-0-0---0-|


  Gtrs I, II
  E E E E E E E E   E E E E E E E E   E E E E E E E E
|-----------------|-----------------|-----------------|
|-----------------|-----------------|-----------------|
|---------------5-|-5-5---5-5-5---5-|-5-5---5-5-5-----|
|-2-2---2-2-2---5-|-5-5---5-5-5---5-|-5-5---5-5-5---5-|
|-2-2---2-2-2---3-|-3-3---3-3-3---3-|-3-3---3-3-3---5-|
|-0-0---0-0-0-----|-----------------|---------------3-|


  Gtrs I, II
  E E E E E E E E   E E E E E E E E   E E E E E E E E
|-----------------|-----------------|-----------------|
|-----------------|-----------------|-----------------|
|-----------------|-----------------|-----------------|
|-5-5---5-5-5---5-|-5-5---5-5-5---5-|-5-5---5-5-5---5-|
|-5-5---5-5-5---5-|-5-5---5-5-5---5-|-5-5---5-5-5---5-|
|-3-3---3-3-3---3-|-3-3---3-3-3---3-|-3-3---3-3-3---3-|


  Gtrs I, II
  E E E E q  q    E E E E E E E E   E E E E E E E E
|---------------|-----------------|-----------------|
|---------------|-----------------|-----------------|
|---------------|-----------------|---------------5-|
|-5-5---5-5--4--|-2-2---2-2-2---2-|-2-2---2-2-2---5-|
|-5-5---5-5--4--|-2-2---2-2-2---2-|-2-2---2-2-2---3-|
|-3-3---3-3--2--|-0-0---0-0-0---0-|-0-0---0-0-0-----|


  Gtrs I, II
  E E E E E E E E   E E E E E E E E   E E E E E E E E
|-----------------|-----------------|-----------------|
|-----------------|-----------------|-----------------|
|-5-5---5-5-5---5-|-5-5---5-5-5-----|-----------------|
|-5-5---5-5-5---5-|-5-5---5-5-5---5-|-5-5---5-5-5---5-|
|-3-3---3-3-3---3-|-3-3---3-3-3---5-|-5-5---5-5-5---5-|
|-----------------|---------------3-|-3-3---3-3-3---3-|



  Gtr I
  E E E E E  E E E   E E E E E E E E   E E E E E E E E
|------------------|-----------------|------------------|
|------------------|-----------------|------------------|
|-----------/7-7-7-|-7-7-7-7-7-7-7-7-|-7-7-7-7-7-6-6-5--|
|-5-5---5-5--------|-----------------|------------------|
|-5-5---5-5-/5-5-5-|-5-5-5-5-5-5-5-5-|-5-5-5-5-5-4-4-3--|
|-3-3---3-3--------|-----------------|------------------|
|
|
| Gtr II
| E E E E E E E E    Q  E E Q.   E     +E  Q  E E E E E
|------------------|-2--2-3-2----3---|-(3)-2------------|
|---------------3--|-3--3-3-3----3---|-(3)-3--3-3-3-3---|
|---------------2--|-2--2-2-2----2---|-(2)-2--2-2-2-2-0-|
|-5-5---5-5-5---0--|-0--0-0-0----0---|-(0)-0--0-0-0-0-0-|
|-5-5---5-5-5------|-----------------|------------------|
|-3-3---3-3-3------|-----------------|------------------|


  Gtr I
  Q  E E E E E E   +Q    E   E   E   E  E S S   Q  E E E E E E
|----------------|----------------------------|----------------|
|----------------|----------------------------|----------------|
|-5--5-5-x-x-5-5-|-(5)------------------x-5-5-|-5--5-5-5-5-5-5-|
|----5-5-x-x-5-5-|-(5)------------------x-5-5-|-5--5-5-5-5-5-5-|
|-3--3-3-x-x-3-3-|-(3)------------------x-3-3-|-3--3-3-3-3-3-3-|
|----------------|------<4>-<4>-<4>-<4>-------|----------------|
|
|
| Gtr II
| Q  E Q.   E E    +Q   E Q  Q   E              Q  E E E E E E
|-------------0--|-(0)----3--0----------------|------0-------0-|
|----------------|------1--------1------------|-1--1---3-1-----|
|------0---------|---------------0------------|-0----------0---|
|----2------2----|----------------------------|----------------|
|-3--------------|----------------------------|----------------|
|----------------|----------------------------|----------------|


  Gtr I
  E E E  Q   E  Q     W                 H    +E   E E S  S
|-------------------|-----------------|--------------------|
|-------------------|-----------------|--------------------|
|-5-5-5S12--12-12\--|-----------------|----------\7-7-9-11-|
|-5-5-5-------------|-5---------------|-5----(5)-----------|
|-3-3-3S10--10-10\--|-5---------------|-5----(5)-----------|
|-------------------|-3---------------|-3----(3)-----------|
|
|
| Gtr II
|  E  E E Q  Q  E     E E E E E E E E   E E E E q  q
|-(0)-----3--0------|-----------------|--------------------|
|-----1-------------|-----------------|--------------------|
|-------0-------0---|-----------------|--------------------|
|---------------0---|-5-5---5-5-5---5-|-5-5---5-5--4-------|
|-------------------|-5-5---5-5-5---5-|-5-5---5-5--4-------|
|-------------------|-3-3---3-3-3---3-|-3-3---3-3--2-------|


  Gtr I
              ~~~~~~~~~~~~~~~~~~~~
                                       |-3--|
  E E  E E E  Q.       H      +E   E E S S  S
|------------------|--------------------------|
|-8----------------|--------------------------|
|---9-11-7-9S12----|-(12)----(12)-\7-7-7h9h11-|
|------------------|--------------------------|
|------------------|--------------------------|
|------------------|--------------------------|
|
|
| Gtr II
| E E E E E E E E    E E E E E E E E
|------------------|--------------------------|
|------------------|--------------------------|
|------------------|--------------------------|
|-2-2---2-2-2---2--|-2-2---2-2-2---5----------|
|-2-2---2-2-2---2--|-2-2---2-2-2---5----------|
|-0-0---0-0-0---0--|-0-0---0-0-0---3----------|


  Gtr I
                               ~~~~~~~~~~~                             ~~~~~~
  E E  E E E  E  +E.  S        H      +E   E E E    E     E E  E    E  E     +E  S  S
|--------------------------|---------------------|------------------------------------|
|-8------------------------|-------------------8-|-10b12r10p8-10b12---10b12r(10)-8h10-|
|---9-11-7-9S12-(12)-12b14r|=(12)----(12)-\7-9---|------------------------------------|
|--------------------------|---------------------|------------------------------------|
|--------------------------|---------------------|------------------------------------|
|--------------------------|---------------------|------------------------------------|
|
|
| Gtr II
| E E E E E E E E            E E E E q  q          E E E E E E  E E
|--------------------------|---------------------|------------------------------------|
|--------------------------|---------------------|------------------------------------|
|--------------------------|---------------------|------------------------------------|
|-5-5---5-5-5---5----------|-5-5---5-5--4--------|-2-2---2-2-2----2-------------------|
|-5-5---5-5-5---5----------|-5-5---5-5--4--------|-2-2---2-2-2----2-------------------|
|-3-3---3-3-3---3----------|-3-3---3-3--2--------|-0-0---0-0-0----0-------------------|


  Gtr I
  ~~
                  |-3-|
  Q.   E +E   E E S S S   E E E E Q     a     +E  +E    W
|-----------------------|-----------------------------|-----------------|
|-8----8-(8)------------|-3---------------------------|-----------------|
|---------------0-0h2h4-|---0-2-0-2b4r=(2)b4==(2)r(2)-|-0---------------|
|------------\5---------|-----------------------------|-----------------|
|-----------------------|-----------------------------|-----------------|
|-----------------------|-----------------------------|-----------------|
|
|
| Gtr II
| E E E E E E E E         E E E E E E E E               E E E E E E E E
|-----------------------|-----------------------------|-----------------|
|-----------------------|-----------------------------|-----------------|
|-----------------------|-----------------------------|-----------------|
|-2-2---2-2-2---5-------|-5-5---5-5-5---5-------------|-5-5---5-5-5---5-|
|-2-2---2-2-2---5-------|-5-5---5-5-5---5-------------|-5-5---5-5-5---5-|
|-0-0---0-0-0---3-------|-3-3---3-3-3---3-------------|-3-3---3-3-3---3-|




  Gtr III
                                           ~~~~~~~~~
  W                  E Q  Q  a Q  E   E Q.   +H
|-----------------|-----------------|-----------------|
|-----------------|-----------------|-----------------|
|-----------------|-/7-7--7--7h9--7S|=4-4----(4)------|
|-----------------|-----------------|-----------------|
|-----------------|-----------------|-----------------|
|-----------------|-----------------|-----------------|
|
|
| Gtrs I, II
| E E E E E E E E   E E E E E E E E   E E E E E E E E
|-----------------|-----------------|-----------------|
|-----------------|-----------------|-----------------|
|-----------------|-----------------|-----------------|
|-5-5---5-5-5---5-|-5-5---5-5-5---2-|-2-2---2-2-2---2-|
|-5-5---5-5-5---5-|-5-5---5-5-5---2-|-2-2---2-2-2---2-|
|-3-3---3-3-3---3-|-3-3---3-3-3---0-|-0-0---0-0-0---0-|


  Gtr III
                       ~~~~~~~~~~~~~~~~~
   Q.   Q  a  Q  E   E Q.   +H         +Q    Q  E E E E
|------------------|-----------------|------------------|
|------------------|-----------------|----------8-8-----|
|-/9----9--9h11--9S|=5-5----(5)------|-(5)--/9------9p7-|
|------------------|-----------------|------------------|
|------------------|-----------------|------------------|
|------------------|-----------------|------------------|
|
|
| Gtrs I, II
| E E E E E E E E    E E E E E E E E   E E E E E E E E
|------------------|-----------------|------------------|
|------------------|-----------------|------------------|
|---------------5--|-5-5---5-5-5---5-|-5-5---5-5-5------|
|-2-2---2-2-2---5--|-5-5---5-5-5---5-|-5-5---5-5-5---5--|
|-2-2---2-2-2---3--|-3-3---3-3-3---3-|-3-3---3-3-3---5--|
|-0-0---0-0-0------|-----------------|---------------3--|


  Gtr III
     ~~~~~~~~~~~~~~~~~~                ~~
  Q  H.             +Q   E E Q  E E   H.      E E
|-----------------|-----------------|-----------------|
|-----------------|-----------------|-----------------|
|----7------------|-(7)--7-9-7--7-9-|-7-------7S4-----|
|-9---------------|-----------------|-----------------|
|-----------------|-----------------|-----------------|
|-----------------|-----------------|-----------------|
|
|
| Gtrs I, II
| E E E E E E E E   E E E E E E E E   E E E E E E E E
|-----------------|-----------------|-----------------|
|-----------------|-----------------|-----------------|
|-----------------|-----------------|-----------------|
|-5-5---5-5-5---5-|-5-5---5-5-5---5-|-5-5---5-5-5---5-|
|-5-5---5-5-5---5-|-5-5---5-5-5---5-|-5-5---5-5-5---5-|
|-3-3---3-3-3---3-|-3-3---3-3-3---3-|-3-3---3-3-3---3-|


  Gtr III
                     ~~~~~~~~~
   Q  E Q a Q  E   E Q.   +H         Q  a Q Q  E E
|----------------|-----------------|-----------------|
|----------------|-----------------|-----------------|
|-/7--7-7-7h9--7S|=4-4----(4)------|----7h9-9--9S5---|
|----------------|-----------------|-9---------------|
|----------------|-----------------|-----------------|
|----------------|-----------------|-----------------|
|
|
| Gtrs I, II
| E E E E q  q     E E E E E E E E   E E E E E E E E
|----------------|-----------------|-----------------|
|----------------|-----------------|-----------------|
|----------------|-----------------|---------------5-|
|-5-5---5-5--4---|-2-2---2-2-2---2-|-2-2---2-2-2---5-|
|-5-5---5-5--4---|-2-2---2-2-2---2-|-2-2---2-2-2---3-|
|-3-3---3-3--2---|-0-0---0-0-0---0-|-0-0---0-0-0-----|


  Gtr III
  ~~~~~~~~~~~~~~~~~~~~~~~               ~~~~~~~~
  W                 +Q    Q  E E E E   H   +Q.   S S
|-----------------|------------------|-----------------|
|-----------------|----------8-8-----|-----------------|
|-5---------------|-(5)--/9------9p7-|-7---(7)---7h9---|
|-----------------|------------------|-----------------|
|-----------------|------------------|-----------------|
|-----------------|------------------|-----------------|
|
|
| Gtrs I, II
| E E E E E E E E   E E E E E E E E    E E E E E E E E
|-----------------|------------------|-----------------|
|-----------------|------------------|-----------------|
|-5-5---5-5-5---5-|-5-5---5-5-5------|-----------------|
|-5-5---5-5-5---5-|-5-5---5-5-5---5--|-5-5---5-5-5---5-|
|-3-3---3-3-3---3-|-3-3---3-3-3---5--|-5-5---5-5-5---5-|
|-----------------|---------------3--|-3-3---3-3-3---3-|


  Gtr III
                      ~~~~~~~~~~~~~~~~~~~~~~~~~
  H.      E E        W                 +H.      E E
|------------------|-----------------|------------------|
|------------------|-----------------|------------------|
|-7-------7-9------|-7---------------|-(7)------7S6-----|
|------------------|-----------------|------------------|
|------------------|-----------------|------------------|
|------------------|-----------------|------------------|
|
|
| Gtr I
| E E E E E  E E E   E E E E E E E E   E E E E E E E E
|------------------|-----------------|------------------|
|------------------|-----------------|------------------|
|-----------/7-7-7-|-7-7-7-7-7-7-7-7-|-7-7-7-7-7-6-6-5--|
|-5-5---5-5--------|-----------------|------------------|
|-5-5---5-5-/5-5-5-|-5-5-5-5-5-5-5-5-|-5-5-5-5-5-4-4-3--|
|-3-3---3-3--------|-----------------|------------------|
|
|
| Gtr II
| E E E E E E E E   Q  E E Q.   E   +E  Q  E E E E E
|------------------|-2--2-3-2----3---|-(3)-2------------|
|---------------3--|-3--3-3-3----3---|-(3)-3--3-3-3-3---|
|---------------2--|-2--2-2-2----2---|-(2)-2--2-2-2-2-0-|
|-5-5---5-5-5---0--|-0--0-0-0----0---|-(0)-0--0-0-0-0-0-|
|-5-5---5-5-5------|-----------------|------------------|
|-3-3---3-3-3------|-----------------|------------------|


              Gtr III
  ~~~~~~~~~~~~~~~~~~~~~~                  ~~~~~~~~~~~~~
  W                 H.         E E               Q.    E  +H
|----------------|----------------------------|------------------|
|----------------|-------------8S-------------|=13----13-(13)----|
|-5--------------|-(5)------------------------|------------------|
|----------------|----------------------------|------------------|
|----------------|----------------------------|------------------|
|----------------|----------------------------|------------------|
|
|
| Gtr I
| Q  E E E E E E   +Q    E   E   E   E  E S S   Q  E E E E E E
|----------------|----------------------------|------------------|
|----------------|----------------------------|------------------|
|-5--5-5-x-x-5-5-|-(5)------------------x-5-5-|-5--5-5-5-5-5-5---|
|----5-5-x-x-5-5-|-(5)------------------x-5-5-|-5--5-5-5-5-5-5---|
|-3--3-3-x-x-3-3-|-(3)------------------x-3-3-|-3--3-3-3-3-3-3---|
|----------------|------<4>-<4>-<4>-<4>-------|------------------|
|
|
| Gtr II
| Q  E Q.   E E    +Q   E Q  Q   E              Q  E E E E E E
|-------------0--|-(0)----3--0----------------|------0-------0---|
|----------------|------1--------1------------|-1--1---3-1-------|
|------0---------|---------------0------------|-0----------0-----|
|----2------2----|----------------------------|------------------|
|-3--------------|----------------------------|------------------|
|----------------|----------------------------|------------------|


                           Gtr III
    ~~~~                    ~~~~~~~~~~           ~~
    E   Q   Q   Q   S  S    H     +Q.    S  S    H     H
|------------------------|--------------------|--------------------|
|-(13)-13--13--13--12h13-|-12----(12)---12h13-|-12-----------------|
|------------------------|--------------------|--------------------|
|------------------------|--------------------|--------------------|
|------------------------|--------------------|--------------------|
|------------------------|--------------------|--------------------|
|
|
| Gtr I
| E E E  Q   E  Q          W                    H    +E   E E S  S
|------------------------|--------------------|--------------------|
|------------------------|--------------------|--------------------|
|-5-5-5S12--12-12\-------|--------------------|----------\7-7-9-11-|
|-5-5-5------------------|-5------------------|-5----(5)-----------|
|-3-3-3S10--10-10\-------|-5------------------|-5----(5)-----------|
|------------------------|-3------------------|-3----(3)-----------|
|
|
| Gtr II
|  E  E E Q  Q  E          E E  E E E E  E E   E E E E q  q
|-(0)-----3--0-----------|--------------------|--------------------|
|-----1------------------|--------------------|--------------------|
|-------0-------0--------|--------------------|--------------------|
|---------------0--------|-5-5----5-5-5----5--|-5-5---5-5--4-------|
|------------------------|-5-5----5-5-5----5--|-5-5---5-5--4-------|
|------------------------|-3-3----3-3-3----3--|-3-3---3-3--2-------|


  Gtr I
              ~~~~~~~~~~~~~~~~~~~~
                                                   |-3-|
  E E  E E E  Q   E    +E   Q   Q   E   E E   E  E S S S  E E  E E E
|-------------------|------------------/7-8-|-8-10-7h8p7----7--------|
|-8-----------------|-----------------------|------------10---10-8-7-|
|---9-11-7-9S12--12-|-(12)-12--12--12\------|------------------------|
|-------------------|-----------------------|------------------------|
|-------------------|-----------------------|------------------------|
|-------------------|-----------------------|------------------------|
|
|
| Gtr II
| E E E E E E E E     E E E E E E E E         E E  E E E E  E E
|-------------------|-----------------------|------------------------|
|-------------------|-----------------------|------------------------|
|-------------------|-----------------------|------------------------|
|-2-2---2-2-2---2---|-2-2---2---2---5-------|-5-5----5-5-5----5------|
|-2-2---2-2-2---2---|-2-2---2---2---5-------|-5-5----5-5-5----5------|
|-0-0---0-0-0---0---|-0-0---0---0---3-------|-3-3----3-3-3----3------|


  Gtr I
                              ~~                          |----3-----|  |---3---|
  E  E E E a  q    E  E    a  Q   E  E  Q  a a  Q         Q   Q   E  E  Q   Q   Q
|------7h8-8S10------10-|-10h12--12-10-12------14b16--|-\12--10--12-10-12------10-|
|-8-10-----------/12----|--------------------x--------|--------------------12-----|
|-----------------------|------------------x----------|---------------------------|
|-----------------------|-----------------------------|---------------------------|
|-----------------------|-----------------------------|---------------------------|
|-----------------------|-----------------------------|---------------------------|
|
|
| Gtr II
| E E E E Q  E E          E E  E E E E   E E            E E   E E E E  E E
|-----------------------|-----------------------------|---------------------------|
|-----------------------|-----------------------------|---------------------------|
|-----------------------|-----------------------------|------------------5--------|
|-5-5---5-5--4----------|-2-2----2-2-2-----2----------|-2-2-----2-2-2----5--------|
|-5-5---5-5--4----------|-2-2----2-2-2-----2----------|-2-2-----2-2-2----3--------|
|-3-3---3-3--2-x--------|-0-0----0-0-0-----0----------|-0-0-----0-0-0-------------|


  Gtr I
   |-3-| |-3-|                    |-3-|
   Q Q Q Q Q Q      S S S S +E  E Q Q Q   E    +E  +E     +E  +E     +E  +E     +E    H    +E    E E
|-/8-7-5----------|-8p7-5---------------|-------------------------------------------|-----------/7-8--|
|--------8-6-5----|-------8-(8)-6-5-----|-------------------------------------------|-----------------|
|-----------------|-----------------7-5-|-4b5==(4)r(4)b5==(4)r(4)b5==(4)r(4)b5==(4)r|=4----(4)\-------|
|-----------------|---------------------|-------------------------------------------|-----------------|
|-----------------|---------------------|-------------------------------------------|-----------------|
|-----------------|---------------------|-------------------------------------------|-----------------|
|
|
| Gtr II
| E E E E E E E E   E E E E E E E E       E E E E E E E E                             E E E E E E E E
|-----------------|---------------------|-------------------------------------------|-----------------|
|-----------------|---------------------|-------------------------------------------|-----------------|
|-5-5---5-5-5---5-|---5---5---5---5-----|-5-5---5-5-5---5---------------------------|-5-5---5-5-5---5-|
|-5-5---5-5-5---5-|---5---5---5---5-----|-5-5---5-5-5---5---------------------------|-5-5---5-5-5---5-|
|-3-3---3-3-3---3-|---3---3---3---3-----|-3-3---3-3-3---3---------------------------|-3-3---3-3-3---3-|
|-----------------|---------------------|-------------------------------------------|-----------------|


  Gtr I
       |-3-|                                            ~~
   E E S S S  E E  E E E   E  E E E a  q    E  E    a  Q   E  E  E  E     +Q
|-10-8-7h8p7----7--------|------7-8-8S10------10-|-10h12--12-10-12-14b16-(14)--|
|------------10---10-8-7-|-8-10-----------/12----|-----------------------------|
|------------------------|-----------------------|-----------------------------|
|------------------------|-----------------------|-----------------------------|
|------------------------|-----------------------|-----------------------------|
|------------------------|-----------------------|-----------------------------|
|
|
| Gtr II
| E E  E E E E  E E        E E  E E E E E E        E E  E E E E E E
|------------------------|-----------------------|-----------------------------|
|------------------------|-----------------------|-----------------------------|
|------------------------|-----------------------|-----------------------------|
|-5-5----5-5-5----5------|-5-5----5-5-5---2------|-2-2----2-2-2---2------------|
|-5-5----5-5-5----5------|-5-5----5-5-5---2------|-2-2----2-2-2---2------------|
|-3-3----3-3-3----3------|-3-3----3-3-3---0------|-0-0----0-0-0---0------------|


  Gtr I
    |----3-----|              |--3--|  |--3--|
    Q   Q   E  E  Q   E  E    Q  Q  Q  Q  Q  Q    S S S S S S E   E E   E E
|-\12--10--12-10-12-----10-|-\8--7--5-----------|---------7h8---/10---/12---|
|--------------------12----|-----------8--6--5--|-5h6p5-8-----5-----5-------|
|--------------------------|--------------------|---------------------------|
|--------------------------|--------------------|---------------------------|
|--------------------------|--------------------|---------------------------|
|--------------------------|--------------------|---------------------------|
|
|
| Gtr II
| E E  E E E E  E E          E E   E E E E  E E   E E   E E E E  E E
|--------------------------|--------------------|---------------------------|
|--------------------------|--------------------|---------------------------|
|-----------------5--------|-5-5-----5-5-5----5-|-5-5-----5-5-5-------------|
|-2-2----2-2-2----5--------|-5-5-----5-5-5----5-|-5-5-----5-5-5----5--------|
|-2-2----2-2-2----3--------|-3-3-----3-3-3----3-|-3-3-----3-3-3----5--------|
|-0-0----0-0-0-------------|--------------------|------------------3--------|


  Gtr I
    ~~~~~~
               |---3---|    |---3----|
    Q   Q   a  q   q   q    E  E  a  E  +Q    +Q     E E    Q      E     E      +E   +S  S E S  S
|------------------------|-------------------------------|----------------------------------------|
|------------------------|-----------------------------8-|-10b12--10b12-10b12==(10)r(10)p8---8h10-|
|-/12--12-----12--12--12-|-12-12----12-(12)--(12)\--/9---|---------------------------------9------|
|-/12--12--12h14--12--10-|--9-10-10h12-(12)--(12)\-------|----------------------------------------|
|------------------------|-------------------------------|----------------------------------------|
|------------------------|-------------------------------|----------------------------------------|
|
|
| Gtr II
| E E  E E E E  E E        E E  E E E E  E E               Q   E E +Q    E   +E
|------------------------|-------------------------------|----------------------------------------|
|------------------------|-------------------------------|----------------------------------------|
|------------------------|-------------------------------|-7---x-7-(7)---7b9r(7)------------------|
|-5-5----5-5-5----5------|-5-5----5-5-5----5-------------|-7---x-7-(7)----------------------------|
|-5-5----5-5-5----5------|-5-5----5-5-5----5-------------|-5---x-5-(5)----------------------------|
|-3-3----3-3-3----3------|-3-3----3-3-3----3-------------|----------------------------------------|


  Gtr I
  ~                 ~
                            |---3---|              |---3---|
  Q  E E E Q  E     Q  E E  Q  Q    Q      E Q  E  Q  Q    Q
|-----------------|----------------------|---------------/12-|
|-8--8---8--------|----------------------|---8----10--8------|
|------9---7--6---|-5--7-5-/9--7--/10----|-9----9------------|
|-----------------|----------------------|-------------------|
|-----------------|----------------------|-------------------|
|-----------------|----------------------|-------------------|
|
|
| Gtr II
|                   ~
| Q  E E +Q   E E   q  E E +Q    E   +E    Q  E E +E  E Q
|-----------------|----------------------|-------------------|
|-----------------|----------------------|-------------------|
|-7--x-7-(7)--7-6-|-5--x-5-(5)---5b7r(5)-|-5--x-5-(5)-5-5----|
|-7--x-7-(7)--7-6-|-5--x-5-(5)-----------|-5--x-5-(5)-5-5----|
|-5--x-5-(5)--5-4-|-3--x-3-(3)-----------|-3--x-3-(3)-3-3----|
|-----------------|----------------------|-------------------|


  Gtr I
    ~
              |--3--|     |-3-|
  E Q E a a a Q Q a Q     Q Q Q E  E  E  E    Q   E  E  S  S  S  S  S  S  S  S
|-----------------------|------------------|-----------------15h17p15h17p15----|
|-8-8-8-------8---------|-8----------------|-----------15h17----------------17-|
|-----------x---9-7h9---|-9-9-9-9S12-12S14-|-12--12h14-------------------------|
|---------x-------------|------------------|-----------------------------------|
|-------x---------------|------------------|-----------------------------------|
|-----------------------|------------------|-----------------------------------|
|
|
| Gtr II
| ~
| q  E E +Q     E   +E    Q  E E +E  E Q     Q    E E  +E   E  Q
|-----------------------|------------------|-----------------------------------|
|-----------------------|------------------|-----------------------------------|
|-5--x-5-(5)----5b7r(5)-|-5--x-5-(5)-5-5---|-----------------------------------|
|-5--x-5-(5)------------|-5--x-5-(5)-5-5---|-5----x-5--(5)--5--5---------------|
|-3--x-3-(3)------------|-3--x-3-(3)-3-3---|-5----x-5--(5)--5--5---------------|
|-----------------------|------------------|-3----x-3--(3)--3--3---------------|


  Gtrs I, III
                                         ~~~~~~~~~~~~~~
                 |--3--|
   Q   Q  E  E E S  S  S   E  E  E E  E  Q.       Q     E    E   +E  E E S  S  S
|-15--15-----------------|--------------------|----------------------------------|
|------------------------|-8------------------|----------------------------------|
|-----------\7-7-7h=9h11-|-9--9-11-7--9S12----|--12----12---12--(12)S7-7-7h=9h11-|
|-----------\9-9-9h10h12-|---10-12-9-10S12----|-(12)--(12)-(12)-(12)S9-9-9h10h12-|
|------------------------|--------------------|----------------------------------|
|------------------------|--------------------|----------------------------------|
|
|
| Gtr II
| q  E E q   q             E E E E E E E E      E E  E E E E  E E
|------------------------|--------------------|----------------------------------|
|------------------------|--------------------|----------------------------------|
|------------------------|--------------------|----------------------------------|
|-5--x-x-5---4-----------|-2-2---2-2-2---2----|-2-2----2-2-2----5----------------|
|-5--x-x-5---4-----------|-2-2---2-2-2---2----|-2-2----2-2-2----5----------------|
|-3--x-x-3---2-----------|-0-0---0-0-0---0----|-0-0----0-0-0----3----------------|


  Gtrs I, III
                                ~~                      |------3------|
  E  E  E E  E  E  +E.  S       H     +E     E  E  E    q      q      q     E     Q   S  S
|----------------------------|-----------------------|-------------------------------------|
|-8--------------------------|-----------------------|-------------------------------------|
|-9--9-11-7--9S12-(12)-12b14r|=12----(12)\--------12-|-14b16--14b16--14b16-14b16r14--12h14-|
|---10-12-9-10S12-(12)-------|-------------/12-14-12-|-12b14--12b14--12b14-12b14r12--10h12-|
|----------------------------|-----------------------|-------------------------------------|
|----------------------------|-----------------------|-------------------------------------|
|
|
| Gtr II
| E E E E E E E E              E E E E q  q            E E  E E E E  E E
|----------------------------|-----------------------|-------------------------------------|
|----------------------------|-----------------------|-------------------------------------|
|----------------------------|-----------------------|-------------------------------------|
|-5-5---5-5-5---5------------|-5-5---5-5--4----------|-2-2----2-2-2----2-------------------|
|-5-5---5-5-5---5------------|-5-5---5-5--4----------|-2-2----2-2-2----2-------------------|
|-3-3---3-3-3---3------------|-3-3---3-3--2----------|-0-0----0-0-0----0-------------------|


  Gtrs I, III
   ~~
                      |-3-|
   Q   E  E  +E   E E S S S   E E E E E   +E  E   +E    W
|---------------------------|-------------------------|----------|
|---------------------------|-3-----------------------|----------|
|-12--12-12-(12)----0-0h2h4-|-4-0-2-0-2b4r(2)-2b3r(2)-|-0--------|
|--9-------------\5-0-0h2h5-|---0-4-0-4b5r(4)-2b3r(2)-|-0--------|
|----------------\5---------|-------------------------|----------|
|---------------------------|-------------------------|----------|
|
|
| Gtr II
| E E  E E E E  E E   E E E E E E E E   W
|---------------------------|-------------------------|----------|
|---------------------------|-------------------------|----------|
|---------------------------|-------------------------|----------|
|-2-2----2-2-2----5---------|-5-5---5-5-5---5---------|-5--------|
|-2-2----2-2-2----5---------|-5-5---5-5-5---5---------|-5--------|
|-0-0----0-0-0----3---------|-3-3---3-3-3---3---------|-3--------|


  Gtr II
   W           +W           W          +W           W          +W           W          +W
|------------|------------|----------|------------|----------|------------|----------|-----------|
|------------|------------|----------|------------|----------|------------|----------|-----------|
|------------|------------|----------|------------|-5--------|-(5)--------|----------|-----------|
|-(5)--------|-(5)--------|-2--------|-(2)--------|-5--------|-(5)--------|-5--------|-(5)-------|
|-(5)--------|-(5)--------|-2--------|-(2)--------|-3--------|-(3)--------|-5--------|-(5)-------|
|-(3)--------|-(3)--------|-0--------|-(0)--------|----------|------------|-3--------|-(3)-------|


  Gtr II
  Q.  Q  E Q    E E E Q  E E E   E Q  Q.   Q
|-------------|----------------|--------------|
|-------------|----------------|--------------|
|-7---7--7-7--|-6-x-7-7--7-7-7-|-7S9--9----9--|
|-------------|----------------|--------------|
|-5---5--5-5--|-4-x-5-5--5-5-5-|-5S7--7----7--|
|-------------|----------------|--------------|
|
|
| Gtr III
| W              +W              W
|-3-----------|-(3)------------|-0------------|
|-3-----------|-(3)------------|-0------------|
|-0-----------|-(0)------------|-0------------|
|-0-----------|-(0)------------|-2------------|
|-2-----------|-(2)------------|-2------------|
|-3-----------|-(3)------------|-0------------|


  Gtr II
  E E E E E E E E   Q  E E Q  E E   E E E E E E E E
|-----------------|---------------|-----------------|
|-----------------|---------------|-----------------|
|-7S9---9-9S7-7S5-|-5----5-5----5-|-4S5-5S4-4S5-5S7-|
|-----------------|---------------|-----------------|
|-5S7---7-7S5-5S3-|-3----3-3----3-|-2S3-3S2-2S3-3S5-|
|-----------------|---------------|-----------------|
|
|
| Gtr III
| Q  E Q  Q.        H    E Q  E     +E  Q  Q  Q  E
|-0---------------|-----------0---|-(0)----3--0-----|
|----0------------|------1--------|-----1-----------|
|------0--0-------|--------0------|--------------0--|
|-----------------|---------------|-----------------|
|-----------------|-3-------------|-----------------|
|-----------------|---------------|-----------------|


  Gtr II
                   <
  E E E Q  E E E   E E E E E E E E   E E E E E E E E
|----------------|-----------------|-----------------|
|----------------|-----------------|-----------------|
|-5S7---7--7-7-7-|-7-7-7-7-7-7-7-7-|-7-7-7-7-7-7-7-7-|
|----------------|-----------------|-----------------|
|-3S5---5--5-5-5-|-5-5-5-5-5-5-5-5-|-5-5-5-5-5-5-5-5-|
|----------------|-----------------|-----------------|
|
|
| Gtr III
| H    Q.   E      +E  Q.   +H       Q  E E Q.   E
|-3---------3----|-(3)-------------|-2--2-3-2----3---|
|-3--------------|-----3----(3)----|-3--3-3-3----3---|
|-0----0---------|-----------------|-2--2-2-2----2---|
|-0--------------|-----------------|-0--0-0-0----0---|
|-2--------------|-----------------|-----------------|
|-3--------------|-----------------|-----------------|


  Gtr II
  E E E E E E E E    Q  E E E E E E   +Q    E   E   E   E  E S S
|------------------|----------------|----------------------------|
|------------------|----------------|----------------------------|
|-7-7-7-7-7-6-6-5--|-5--5-5-x-x-5-5-|-(5)------------------x-5-5-|
|------------------|----5-5-x-x-5-5-|-(5)------------------x-5-5-|
|-5-5-5-5-5-4-4-3--|-3--3-3-x-x-3-3-|-(3)------------------x-3-3-|
|------------------|----------------|------<4>-<4>-<4>-<4>-------|
|
|
| Gtr III
|  E  Q  E E E E E   Q  E Q.   E E    +Q   E Q  Q   E
|-(3)-2------------|-------------0--|-(0)----3--0----------------|
|-(3)-3--3-3-3-3---|----------------|------1--------1------------|
|-(2)-2--2-2-2-2-0-|------0---------|---------------0------------|
|-(0)-0--0-0-0-0-0-|----2------2----|----------------------------|
|------------------|-3--------------|----------------------------|
|------------------|----------------|----------------------------|


  Gtr II
  Q  E E E E E E   E E E  Q   E  Q     W
|----------------|-------------------|-----------------|
|----------------|-------------------|-----------------|
|-5--5-5-5-5-5-5-|-5-5-5S12--12-12\--|-----------------|
|-5--5-5-5-5-5-5-|-5-5-5-------------|-5---------------|
|-3--3-3-3-3-3-3-|-3-3-3S10--10-10\--|-5---------------|
|----------------|-------------------|-3---------------|
|
|
| Gtr III
| Q  E E E E E E   +E  E E Q  Q  E     E E E E E E E E
|------0-------0-|-(0)-----3--0------|-----------------|
|-1--1---3-1-----|-----1-------------|-----------------|
|-0----------0---|-------0-------0---|-----------------|
|----------------|---------------0---|-5-5---5-5-5---5-|
|----------------|-------------------|-5-5---5-5-5---5-|
|----------------|-------------------|-3-3---3-3-3---3-|


  Gtrs I, II
                                        ~~~~~~~~~~~~~~~~~
                |--3--|                                           |--3--|
  H    +E   E E S  S  S   E  E  E E  E  Q.      +Q.    E  +E  E E S  S  S
|-----------------------|--------------------|----------------------------|
|-----------------------|-8------------------|----------------------------|
|----------\7-7-7h=9h11-|-9--9-11-7--9S12----|-(12)---12-(12)S7-7-7h=9h11-|
|-5----(5)-\9-9-9h10h12-|---10-12-9-10S12----|----------------9-9-9h10h12-|
|-5----(5)--------------|--------------------|----------------------------|
|-3----(3)--------------|--------------------|----------------------------|
|
|
| Gtr III
| E E E E q   q           E E E E E E E E      E E  E E E E  E E
|-----------------------|--------------------|----------------------------|
|-----------------------|--------------------|----------------------------|
|-----------------------|--------------------|----------------------------|
|-5-5---5-5---4---------|-2-2---2-2-2---2----|-2-2----2-2-2----5----------|
|-5-5---5-5---4---------|-2-2---2-2-2---2----|-2-2----2-2-2----5----------|
|-3-3---3-3---2---------|-0-0---0-0-0---0----|-0-0----0-0-0----3----------|


  Gtrs I, II                                                |--3--|
                ~~~~~~~~~~~~~~~~~~~~~~~~~~~~~~~~~~~~~~                                ~~~
  E  E  E E  E  Q   S      +S     +E       +E   +Q    E E E S  S  S   E  E  E E  E  Q.
|------------------------------|------------------------------------|--------------------|
|-8----------------------------|------------------------------------|-8------------------|
|-9--9-11-7--9S12--12b14==(12)r|-(12)b14==(12)r(12)--12S7-7-7h=9h11-|-9--9-11-7--9S12----|
|---10-12-9-10S12--------------|------------------------9-9-9h10h12-|---10-12-9-10S12----|
|------------------------------|------------------------------------|--------------------|
|------------------------------|------------------------------------|--------------------|
|
|
| Gtr III
| E E E E E E  E E               E E E E q   q                        E E E E E E E E
|------------------------------|------------------------------------|--------------------|
|------------------------------|------------------------------------|--------------------|
|------------------------------|------------------------------------|--------------------|
|-5-5---5-5-5----5-------------|-5-5---5-5---4----------------------|-2-2---2-2-2---2----|
|-5-5---5-5-5----5-------------|-5-5---5-5---4----------------------|-2-2---2-2-2---2----|
|-3-3---3-3-3----3-------------|-3-3---3-3---2----------------------|-0-0---0-0-0---0----|


  Gtrs I, II
   ~~~
                     |-3-|                                        |-3-|
   Q.    E  +E   E E S S S   E E E E S   +S  Q.    Q  E E +E  E E S S S
|--------------------------|---------------------|----------------------|
|--------------------------|-3-------------------|----------------------|
|-12----12-(12)----0-0h2h4-|-4-0-2-0-2b3r(2)p0---|-0--0-0-(0)-0-0-0h2h4-|
|---------------\5-0-0h2h5-|---0-2-0-2b3r(2)p0---|----------------------|
|---------------\5---------|---------------------|----------------------|
|--------------------------|---------------------|----------------------|
|
|
| Gtr III
| E E  E E E E  E E          E E E E E E E E   E E  E E E E  E E
|--------------------------|---------------------|----------------------|
|--------------------------|---------------------|----------------------|
|--------------------------|---------------------|----------------------|
|-2-2----2-2-2----5--------|-5-5---5-5-5---5-----|-5-5----5-5-5----5----|
|-2-2----2-2-2----5--------|-5-5---5-5-5---5-----|-5-5----5-5-5----5----|
|-0-0----0-0-0----3--------|-3-3---3-3-3---3-----|-3-3----3-3-3----3----|


                           1.,2.,3.
  Gtrs I, II
    PM|         PM|           PM|         PM|
        |-3-|       |-3-|         |-3-|       |-3-|
  E E E S S S E E E S S S   E E E S S S E E E S S S
|-------------------------|--------------------------||
|-3-----------------------|-3-----------------------o||
|---0-2-2h4p2p0-0-2-0h2h4-|---0-2-2h4p2p0-0-2-0h2h4--||
|-------------------------|--------------------------||
|-------------------------|-------------------------o||
|-------------------------|--------------------------||
|
|
|                          1.,2.,3.
|  Gtr III
|       PM|        PM|          PM|        PM-|
|   E E E E  E  E  E E      E E E E  E  E  E  E
||------------------------|--------------------------||
||o-----------------------|-------------------------o||
||------------------------|--------------------------||
||--5-5------5--5---------|-5-5------5--5------------||
||o-5-5------5--5---------|-5-5------5--5-----------o||
||--3-3-3-3--3--3--3-3----|-3-3-3-3--3--3--3--3------||


  4.
  Gtrs I, II
    PM|         PM|
        |-3-|       |-3-|
  E E E S S S E E E S S S   W
|-------------------------|----------|
|-3-----------------------|----------|
|---0-2-2h4p2p0-0-2-0h2h4-|-0--------|
|-------------------------|----------|
|-------------------------|----------|
|-------------------------|----------|
|
|
| 4.
| Gtr III
|     PM|        PM-|
| E E E E  E  E  E  E   W
|-------------------------|----------|
|-------------------------|----------|
|-------------------------|----------|
|-5-5------5--5-----------|-5--------|
|-5-5------5--5-----------|-5--------|
|-3-3-3-3--3--3--3--3-----|-3--------|


Duration Legend
---------------
W - whole; 
H - half; 
Q - quarter; 
E - 8th; 
S - 16th; 
T - 32nd; 
X - 64th; 
a - acciaccatura
+ - note tied to previous; 
. - note dotted; 
.. - note double dotted
Uncapitalized letters represent notes that are staccato (1/2 duration)
Irregular groupings are notated above the duration line
Duration letters will always appear directly above the note/fret number it represents the
duration for.  Duration letters with no fret number below them represent rests.  Multi-
bar rests are notated in the form Wxn, where n is the number of bars to rest for.  Low
melody durations appear below the staff

Tablature Legend
----------------
 h   - hammer-on
 p   - pull-off
 b   - bend
 pb  - pre-bend
 r   - bend release (if no number after the r, then release immediately)
 /\  - slide into or out of (from/to "nowhere")
 s   - legato slide
 S   - shift slide
<n>  - natural harmonic
[n]  - artificial harmonic
n(n) - tapped harmonic
 ~   - vibrato
 tr  - trill
 T   - tap
 TP  - trem. picking
 PM  - palm muting
\n/  - tremolo bar dip; n = amount to dip
 \n  - tremolo bar down
 n/  - tremolo bar up
/n\  - tremolo bar inverted dip
 =   - hold bend; also acts as connecting device for hammers/pulls
 <>  - volume swell (louder/softer)
 x   - on rhythm slash represents muted slash
 o   - on rhythm slash represents single note slash

Misc Legend
-----------
 |  - bar
||  - double bar
||o - repeat start
o|| - repeat end
*|  - double bar (ending)
 :  - bar (freetime)
 $  - Segno
 &  - Coda
Tempo markers - <E/E./Q/Q./H/H.> = BPM(8/16=s8/s16), where s8 = swing 8ths, s16 = swing 16ths


***************************************************************************************
***************************************************************************************





Comments


Popular Metallica tabs & chords
Aint My Bitch Bass Tabs
Anesthesia 1 Bass Tabs
Eye Of The Beholder 3 Bass Tabs
Fight Fire With Fire 3 Bass Tabs
...And Justice For All 2 Tabs
Disposable Heroes 2 Tabs
Invisible Kid 1 Tabs
Just A Bullet Away Tabs
Noise Tabs
Seek And Destroy Tabs


Song lyrics



↑ Back to top | Tablatures and chords are parodies/interpretations of the original songs. You may use it for private study, scholarship, research or language learning purposes only
© 2014 AZChords.com Contact us | Privacy policy | DMCA | Add/correct tabs | Request tabs | Top 50 tabs