>
 >
Whom The Bell Tolls

Whom The Bell Tolls Guitar Tabs

Metallica - Whom The Bell Tolls chords, tabs, tablatures, lyrics

Guitar lessons | Add/correct | Request | Top 50 tabs Artists:  A B C D E F G H I J K L M N O P Q R S T U V W X Y Z 0-9

Whom The Bell Tolls Guitar Tabs – Metallica

CD, Sheet music, Poster

Do you like Whom The Bell Tolls? Share with your friends now
Tabs
e--------------
	B--------------
  gtr 	G--------------
  1+2	D-4-4--4-4--(2)
	A-4-4--4-4--(2)
	E-2-2--2-2--(0)

	
	e----------------------------------------
	B----------------------------------------
  gtr	G----------------------------------------|   4
   1	D-------------------------4-4--4-4--(2)--| times
	A-------------------------4-4--4-4--(2)--
	E-------------------------2-2--2-2--(0)--
                                                             
	e-----------------------------------------
	B-----------------------------------------
  gtr	G-----------------------------------------|  5
   2	D-12-11-10-(9)s12----12-------------------| times
	A----------------10-9---------------------
	E----------------------10-(9)~~~~~~~~~~~~~



	e-------------------------------------------
	B-------------------------------------------
  gtr	G-------------------------------------------|   4
   1	D-4/5--4/5--(2)-----------------------------| times
	A-4/5--4/5--(2)-----------------------------
	E-2/3--2/3--(0)-----------------------------
                                                
	e-------------------------------------------
	B-------------------------------------------
  gtr	G-------------------------------------------|   3
   2	D--------------12-11-10-(9)s12----12--------| times
	A-----------------------------10-9----------
	E-----------------------------------10-(9)~~


	e--------------------
	B--------------------
   	G--------------------|   5
   	D-(2)---------/7-/7--| times
	A-(2)---------/7-/7--
	E-(0)---------/5-/5--


	e------------------------------------         |-------
	B------------------------------------         |-------
	G------------------------------------|   4    |-------|
	D-2-5-4-3--2-5-4-3--2-5-4-3--2-5-6-7-| times  |--(2)--|
	A-2-5-4-3--2-5-4-3--2-5-4-3--2-5-6-7-         |--(2)--
	E-0-3-2-1--0-3-2-1--0-3-2-1--0-3-4-5-         |--(0)--


	e----------------
	B----------------
 gtr	G-12-9-11----9-11| many
  1	D---------12-----| times
	A----------------
	E----------------

	e-------------------------------------------------------
	B-------------------------------------------------------
  gtr	G-------------------------------------------------------|   2
   2	D-(2)-------(5)-----9--------(2)-------(5)----(10)--(7)-| times
	A-(2)-------(5)-----9--------(2)-------(5)----(10)--(7)-
	E-(0)-------(3)-----7--------(0)-------(3)-----(8)--(5)-
                            x


	e-------------------------------------------
	B-------------------------------------------
     	G-------------------------------------------
	D-2--22-(5)---2--22-(7)---2--22-(5)---8--4--
	A-2--22-(5)---2--22-(7)---2--22-(5)---8--4--|
	E-0--00-(3)---0--00-(5)---0--00-(3)---6--2--|
             xx          xx          xx             |} times 2
	e-------------------------------------------|
	B-------------------------------------------|
	G--------------------------------------3----
	D-2--22-(5)---2--22-(7)---2--22-(5)----3-4-3
	A-2--22-(5)---2--22-(7)---2--22-(5)----1-4-3
	E-0--00-(3)---0--00-(5)---0--00-(3)-00---2-1
             xx          xx          xx     xx     

       Make his fight on the hill in the early day
 e-------------------------------------------------------
 B-------------------------------------------------------
 G-------------------------------------------------------
 D-(2)----------------------------------------------(5)--
 A-(2)----------------------------------------------(5)--
 E-(0)----------------------------------------------(3)--
          
   Constant chill deep inside...     Shouting gun,on they run through the endless grey
 e-----------------------------------------------------------------------------------
 B-----------------------------------------------------------------------------------
 G-----------------------------------------------------------------------------------
 D--------------------------9------(2)-----------------------------------------------
 A--------------------------9------(2)-----------------------------------------------
 E--------------------------7------(0)-----------------------------------------------
                            x

               On they fight,for they are right,yes but who's to say?
	e-----------------------------------------------------------------
	B-----------------------------------------------------------------
	G-----------------------------------------------------------------
	D--(5)----------------------------(10)----------(7)---------------
	A--(5)----------------------------(10)----------(7)---------------
	E--(3)-----------------------------(8)----------(5)---------------

              For a hill men would kill,why?They do not know....
	e----------------------------------------------------------
	B----------------------------------------------------------
	G----------------------------------------------------------
	D-(2)------------------------------------------------(5)---
	A-(2)------------------------------------------------(5)---
	E-(0)------------------------------------------------(3)---

	   Suffered wounds test their pride.
	e---------------------------------------------
	B---------------------------------------------
	G---------------------------------------------
	D------------------------------------10--(2)--
	A------------------------------------10--(2)--
	E-------------------------------------8--(0)--

          Men of five,still alive through the raging glow
	e----------------------------------------------------
	B----------------------------------------------------
	G----------------------------------------------------
	D------------------------------------------------(5)-
	A------------------------------------------------(5)-
	E------------------------------------------------(3)-

          Gone insane from the pain that they surely know
	e-------------------------------------------------
	B-------------------------------------------------
	G-------------------------------------------------
	D---------------------(10)--------------(7)-------
	A---------------------(10)--------------(7)-------
	E----------------------(8)--------------(5)-------

                                         For Whom the bell tolls
	e---------------------------------------------------------
	B---------------------------------------------------------
	G---------------------------------------------------------
	D-2-22--(5)--2-22--(7)--2-22--(5)---8--------4-------2-22-
	A-2-22--(5)--2-22--(7)--2-22--(5)---8--------4-------2-22-
	E-0-00--(3)--0-00--(5)--0-00--(3)---6--------2-------0-00-
            xx         xx         xx                           xx

               Time marches on!
	e----------------------------------------------------
	B----------------------------------------------------
	G--------3-------------------------------------------
	D-5-22---3--4----3---2--22--(5)--2-22--(7)--2-22--(5)
	A-5-22---1--4----3---2--22--(5)--2-22--(7)--2-22--(5)
	E-3-00------2----1---0--00--(3)--0-00--(5)--0-00--(3)
            xx                  xx         xx         xx  

          For Whom the bell tolls
	e----------------------------------------
	B----------------------------------------
	G----------------------------------3-----
	D----8--------4------2---22--5--22-3-4-3-
	A----8--------4------2---22--5--22-1-4-3-
	E----6--------2------0---00--3--00---2-1-
                                 xx     xx


G e----------------------------------------------------------------------
T B----------------------------------------------------------------------
R G----------------------------------------------------------------------
  D-(2)-----------------------(5)----(2)----------------------5-555-5-555
I A-(2)-----------------------(5)----(2)----------------------5-555-5-555
  E-(0)-----------------------(3)----(0)----------------------3-333-3-333
                                                                             
G e----------------------------------------------------------------------
T B----------------------------------------------------------------------
R G--12-9-11--9----------------------12-9-11--9--------------------------
  D---------12-11-12-9-11--9--(9)~~---------12-11-12-9-11--9-------------
IIA----------------------12-11---------------------------12-11-----------
  E----------------------------------------------------------------------

G e---------------------------------------------------------------
T B---------------------------------------------------------------
R G---------------------------------------------------------------
  D-(2)---------------------(9)---(2)-----------------------(5)---
I A-(2)---------------------(9)---(2)-----------------------(5)---
  E-(0)---------------------(7)---(0)-----------------------(3)---
                                                                                       
G e---------------------------------------------------------------
T B---------------------------------------------------------(12)~~
R G--12-9-11--9--------------------12-9-11--9---------------------
  D---------12-11-12-9-11--9--------------12-11-12-9-11--9--------
IIA----------------------12-11-------------------------12-11------
  E---------------------------------------------------------------

G e-------------------------------------------------------------------------
T B-------------------------------------------------------------------------
R G-------------------------------------------------------------------------
  D-(2)------------------------5-555-5-555--(2)----------------------(9)----
I A-(2)------------------------5-555-5-555--(2)----------------------(9)----
  E-(0)------------------------3-333-3-333--(0)----------------------(7)----
                                                                             
G e-------------------------------------------------------------------------
T B------------------------------------------------------------------(12)~~~
R G--12-9-11--9---------------(12)~~--------12-9-11--9----------------------
  D---------12-11-12-9-11--9-----------------------12-11-12-9-11--9---------
IIA----------------------12-11----------------------------------12-11-------
  E-------------------------------------------------------------------------

             Take a look to the sky just before you die    
	e----------------------------------------------------
	B----------------------------------------------------
	G----------------------------------------------------
	D-(2)-------------------------------------------(5)--
	A-(2)-------------------------------------------(5)--
	E-(0)-------------------------------------------(3)--

          It's the last time you will..
	e----------------------------------------------------
	B----------------------------------------------------
	G----------------------------------------------------
	D--------------------------9--------------10--(2)----
	A--------------------------9--------------10--(2)----
	E--------------------------7---------------8--(0)----
                                   x

          Blackened roar massive roar fills the crumbling sky
	e-----------------------------------------------------------
	B-----------------------------------------------------------
	G-----------------------------------------------------------
	D------------------------------------------------------(5)--
	A------------------------------------------------------(5)--
	E------------------------------------------------------(3)--


          Shattered  goal fills his soul with a  ruthless cry
	e------------------------------------------------------------
	B------------------------------------------------------------
	G------------------------------------------------------------
	D---------------------------(10)----------(7)----------------
	A---------------------------(10)----------(7)----------------
	E----------------------------(8)----------(5)----------------


         Stranger now, are his eyes,to this mystery                                                           
   e--------------------------------------------------------
   B--------------------------------------------------------
   G--------------------------------------------------------
   D-(2)-----------------------------------------------(5)--
   A-(2)-----------------------------------------------(5)--
   E-(0)-----------------------------------------------(3)--

	   He hears the silence so loud
	e----------------------------------------
	B----------------------------------------
	G----------------------------------------
	D---------------------------------10-(2)-
	A---------------------------------10-(2)-
	E----------------------------------8-(0)-

          Crack of dawn, all is gone except the will to be
	e-------------------------------------------------------
	B-------------------------------------------------------
	G-------------------------------------------------------
	D--------------------------------------------------(5)--
	A--------------------------------------------------(5)--
	E--------------------------------------------------(3)--

          Now they see what will be, blinded eyes to see           
	e----------------------------------------------------------
	B----------------------------------------------------------
	G----------------------------------------------------------
	D------------------------(7)----------(10)-----------------
	A------------------------(7)----------(10)-----------------
	E------------------------(5)-----------(8)-----------------

                                         For Whom the bell tolls
	e---------------------------------------------------------
	B---------------------------------------------------------
	G---------------------------------------------------------
	D-2-22--(5)--2-22--(7)--2-22--(5)---8--------4-------2-22-
	A-2-22--(5)--2-22--(7)--2-22--(5)---8--------4-------2-22-
	E-0-00--(3)--0-00--(5)--0-00--(3)---6--------2-------0-00-
            xx         xx         xx                           xx

               Time marches on!
	e----------------------------------------------------
	B----------------------------------------------------
	G--------3-------------------------------------------
	D-5-22---3--4----3---2--22--(5)--2-22--(7)--2-22--(5)
	A-5-22---1--4----3---2--22--(5)--2-22--(7)--2-22--(5)
	E-3-00------2----1---0--00--(3)--0-00--(5)--0-00--(3)
            xx                  xx         xx         xx  

          For Whom the bell TOLLLLLLLLSSSSSSSS....
	e----------------------------------------
	B----------------------------------------
	G----------------------------------3-----
	D----8--------4------2---22--5--22-3-4-3-
	A----8--------4------2---22--5--22-1-4-3-
	E----6--------2------0---00--3--00---2-1-
                                 xx     xx

	e----------------------------
	B----------------------------
	G----------------------------|  repeat
	D-(2)--44--(2)---44-55--(2)--|fades out  
	A-(2)--44--(2)---44-55--(2)--
	E-(0)--22--(0)---22-33--(0)--





Comments


Popular Metallica tabs & chords
Blackened Bass Tabs
Fade To Black 1 Chords
Blitzkrieg Drum Tabs
2x Tabs
Frantic Complete Tabs
La Bamba Tabs
Loverman 1 Tabs
Low Man's Lyric 1 Tabs
No Leaf Clover Orchestra Tabs
The Memory Remains 2 Tabs


Song lyrics



↑ Back to top | Tablatures and chords are parodies/interpretations of the original songs. You may use it for private study, scholarship, research or language learning purposes only
© 2014 AZChords.com Contact us | Privacy policy | DMCA | Add/correct tabs | Request tabs | Top 50 tabs