» » »

Whiskey In The Jar Tabs (ver.7)

Artists:  A B C D E F G H I J K L M N O P Q R S T U V W X Y Z # 

Whiskey In The Jar Tabs (ver.7)

Metallica
Rating:
0/5 (0 votes)
Tabs too difficult? Try these video lessons and learn fast.
                (Riff)
Metallica - Whiskey in the jar (Riff)




There are no correct Versions of it (in my opinion) so here is one!)

______________________________________________________________________________________________


e:-------------------------------|
B:-------------------------------|
G:-------------12-------------12-|
D:-12-12-12h14----14-16-12-14----|    <= 2 times
A:-------------------------------|
E:-------------------------------|

e:----------------------------------|
B:----------------12-------12-------|
G:-------12-14b15----14b15----14-12-|
D:-12-14----------------------------|
A:----------------------------------|
E:----------------------------------|	

e:-----------------------|
B:-----------------------|
G:---------7-------------|
D:-5-5-5h7---5-7-5-7b8-5-|
A:-----------------------|
E:-----------------------|

______________________________________________________________________________________________

h = Hammer on
b = Bend
______________________________________________________________________________________________



Marian M. Misch (GTU-Forums: TripleM)


______________________________________________________________________________________________
            
Tabs too difficult? Try these video lessons and learn fast.


comments powered by Disqus
↑ Back to top | Tablatures and chords are parodies/interpretations of the original songs. You may use it for private study, scholarship, research or language learning purposes only