>
 >
Whiskey In The Jaro

Whiskey In The Jaro Guitar Tabs

Metallica - Whiskey In The Jaro chords, tabs, tablatures, lyrics

Guitar lessons | Add/correct | Request | Top 50 tabs Artists:  A B C D E F G H I J K L M N O P Q R S T U V W X Y Z 0-9

Whiskey In The Jaro Guitar Tabs – Metallica

CD, Sheet music, Poster

Do you like Whiskey In The Jaro? Share with your friends now
Tabs
PROPS GO TO: Sindre Froyn

Whiskey in the Jar'o covered by Metallica
+++++++++++++++++++++++++++++++
                                                                         
  
  0:02                                                                               
e|-----------------------------------------------------------------------------------------|
h|-----------------------------------------------------------------------------------------|
g|-----------------------------------------------------------------------------------------|
D|-----0h2h3-0-2---0-3-------0h2h3-0-2---0-3h5r3-------0h2h3-0-2---0-3---------------------|
A|-3-3-----------3-------3-3-----------3-----------3-3-----------3----------0-3---0---0----|
E|----------------------------------------------------------------------1-3-----3---3---3-1|

***********singing

   
  0:43                                                                    
e|-----------------------------------------------------------------------------------------|
h|-----------------------------------------------------------------------------------------|
g|-------------------------------------------------------2-2-2-2-2-------------------------|
D|-----0h2h3-0-2---0-3-------0h2h3-0-2---0-3h5r3-----0-3-----------5-3-5-3-3---------------|
A|-3-3-----------3-------3-3-----------3-----------3---------------------------------------|
E|-----------------------------------------------------------------------------------------|

   
  0:54                                                                               
e|-----------------------------------------------------------------------------------------|
h|-----------------------------------------------------------------------------------------|
g|-----------------------------------------------------------------------------------------|
D|-----------------------------------------------------------------------------------------|
A|-----0-3---0---0-------------------------------------------------------------------------|
E|-1-3-----3---3---3-1---------------------------------------------------------------------|
                                                                                     

***********singing
  
  1:41                                                                    
e|-----------------------------------------------------------------------------------------|
h|-----------------------------------------------------------------------------------------|
g|-------------------------------------------------------2-2-2-2-2-------------------------|
D|-----0h2h3-0-2---0-3-------0h2h3-0-2---0-3h5r3-----0-3-----------5-3-5-3-3---------------|
A|-3-3-----------3-------3-3-----------3-----------3---------------------------------------|
E|-----------------------------------------------------------------------------------------|

   
  1:51                                                                               
e|-----------------------------------------------------------------------------------------|
h|-----------------------------------------------------------------------------------------|
g|-----------------------------------------------------------------------------------------|
D|-----------------------------------------------------------------------------------------|
A|-----0-3---0---0-0-----------------------------------------------------------------------|
E|-1-3-----3---3-----3-1-------------------------------------------------------------------|


***********singing


The Solo:

  2:39                                                                                 
e|------------------------------------------------------------------1----------------------|
h|----------------------------------------------------------3-3-1-3---1h3r1h3--------------|
g|-----------------------2-3-5-3-2--2-----------2-3-5---2-5--------------------------------|
D|-----0h2h3-0-2---0-3-------------5--5-3-2-3-5--------------------------------------------|
A|-3-3-----------3-------------------------------------------------------------------------|
E|-----------------------------------------------------------------------------------------|
 
                                                                                   
                                   2:54                                                   
e|-----------------------------------------------------------------------------------------|
h|-----------------------------------------------------------------------------------------|
g|-2-5-3-2---------2r0---------------------------------------------------------------------|
D|---------5-3-1-0----3-1--0---------------------------------------------------------------|
A|---------------------------3--1--0h1r0h1r0h1r0h1r0h1r0h1r0-------------------------------|
E|-----------------------------------------------------------------------------------------|


  2:57                                                                              
e|-----------------------------------------------1-----------------------------------------|
h|---------------------------------------3-3-1-3---1h3r1h3---------------------------s3----|
g|-2-3-5-3-2h3r2-2-----------2-3-5---2-5-------------------2-5-3-2------------2h3-s5-------|
D|-----------------5-3-2-3-5--------------------------------------5-3-1-0-0h1-------------3|
A|--------------------------------------------------------------------------------------2h3|
E|--------------------------------------------------------------------------------------0h1|

                                                                                       
  3:12                                                                                   
e|-----------------------------------------------------------------------------------------|
h|---------------------------------------------------------------------18g20r18h20r18h20r18|
g|-2-2-2-----------------------------------------------------------------------------------|
D|-------5-3-0-3h5r3-3-3-----------0---0h1r0-3-0-5-3-0-3-3-3-3-15-15-15--------------------|
A|-----------------------3-2-1-3-1---3-----------------------------------------------------|
E|-----------------------------------------------------------------------------------------|


  3:26
e|-----------------------------------------------------------------------------------------|
h|-----------------------------------------------------------------------------------------|
g|-------------------------------------------------------2-2-2-2-2-------------------------|
D|-----0h2h3-0-2---0-3-------0h2h3-0-2---0-3h5r3-----0-3-----------5-3-5-3-3---------------|
A|-3-3-----------3-------3-3-----------3-----------3---------------------------------------|
E|-----------------------------------------------------------------------------------------|

   
  3:36                                                                               
e|-----------------------------------------------------------------------------------------|
h|-----------------------------------------------------------------------------------------|
g|-----------------------------------------------------------------------------------------|
D|-----------------------------------------------------------------------------------------|
A|-----0-3---0---0-------------------------------------------------------------------------|
E|-1-3-----3---3---3-1---------------------------------------------------------------------|
                                                                                     

***********singing


  4:23 
e|-----------------------------------------------------------------------------------------|
h|-----------------------------------------------------------------------------------------|
g|-----------------------------------------------------------------------------------------|
D|-----0h2h3-0-2---0-3-------0h2h3-0-2---0-3h5r3-------0h2h3-0-2---0-3---------------------|
A|-3-3-----------3-------3-3-----------3-----------3-3-----------3----------0-3---0---0----|
E|----------------------------------------------------------------------1-3-----3---3---3-1|


  4:37
e|----------------------------------------|------------------------------------------------|
h|----------------------------------------|------------------------------------------------|
g|----------------------------------------|------------------------------------------------|
D|----------------------(    Repeat      )|--------3---------------------------------------|
A|-----0-3---0---0------(   4 times      )|---0----3---------------------------------------|
E|-1-3-----3---3---3-1--------------------|-----3--1---------------------------------------|

                                                                                       
Notation Legend:
h=hammer
r=release (pull off)
s=slide
b=bend
bs=bend and slide (duh!)
3:29= 3 minutes and 29 seconds into song (duh!)

Oslo, 29th November 2002





Comments


Popular Metallica tabs & chords
Anethesia 1 Bass Tabs
Attitude 2 Tabs
Fade To Black 4 Tabs
Fade To Black Intro 2 Tabs
Fade To Black Intro And Tabs
Nothing Else Matters 6 Tabs
Of Wolf And Man Tabs
Ride The Lightning Intro Tabs
Trapped Under Ice 2 Tabs
Die Die My Darling Ukulele


Song lyrics



↑ Back to top | Tablatures and chords are parodies/interpretations of the original songs. You may use it for private study, scholarship, research or language learning purposes only
© 2014 AZChords.com Contact us | Privacy policy | DMCA | Add/correct tabs | Request tabs | Top 50 tabs