» » »

Metallica, Whiplash Tabs (ver.3)

Artists:  A B C D E F G H I J K L M N O P Q R S T U V W X Y Z # 

Whiplash Tabs (ver.3)

Metallica Tabs
Rating:
0/5 (0 votes)
Whiplash lessons Tabs too difficult? Try these video lessons and learn fast
                (Intro)
Hey here is a bad Ass Metallica song play well and listen to the song so you can get the rythm right, (this is only the intro so I will try to get the rest later but for now have fun and one more thing Metallica  Rulz!)


e---------------------------------
G---------------------------------
B---------------------------------
D------------------------11--10--9
A------------------------11--10--9
E--0-0-0-0-0-0-0-0-0-0-0--9---8--7
  P.M.__________________


And then it changes to

e-----------------------------------
G-----------------------------------
B-----------------------------------
D----------------------------------11
A----------------------------------11
E--0-0-0-0-0-0-0-0-0-0-0-0-0-0-0-0--9
  P.M.____________________________
            

comments powered by Disqus
↑ Back to top | Metallica Tabs for Whiplash. Lyrics for acoustic guitar and electric guitar. Tablatures and chords are parodies/interpretations of the original songs. You may use it for private study, scholarship, research or language learning purposes only