>
 >
Wherever I May Roam Solo S

Wherever I May Roam Solo S Guitar Tabs

Metallica - Wherever I May Roam Solo S chords, tabs, tablatures, lyrics

Guitar lessons | Add/correct | Request | Top 50 tabs Artists:  A B C D E F G H I J K L M N O P Q R S T U V W X Y Z 0-9

Wherever I May Roam Solo S Guitar Tabs – Metallica

CD, Sheet music, Poster

Do you like Wherever I May Roam Solo S? Share with your friends now
Tabs
(Yes Jared, it is me)


Main Solo
 w/wha
|--12----(12)\---------------------------------------|
|--12----(12)\---------------------------------------|
|---------------9-~-~-~----------9--10b11-~--~--~----|
|------------------------10--------------------------|
|----------------------------------------------------|
|----------------------------------------------------|


|-------------------------------------------------------------|
|---------------9--12p9--9--12p9--9----10--9------------------|
|--r10---11b13--------------------------------10p9--10p9--10--|
|-------------------------------------------------------------|
|-------------------------------------------------------------|
|-------------------------------------------------------------|

|--12\------------------------------|---------------------------|
|--12\------------------------------|--15b17r15b17-~-~-~--------|
|-------9-~-~--------9--9b10--~--~--|---------------------------|
|----------------10-----------------|---------------------------|
|-----------------------------------|---------------------------|
|-----------------------------------|---------------------------|


    T*     T*           T      T	    T      T            T      T
|--17p16--17p16p13p12--17p16--17p16p13p12--17p16--17p16p13p12--17p16--17p16p13p12--|
|----------------------------------------------------------------------------------|
|----------------------------------------------------------------------------------|
|----------------------------------------------------------------------------------|
|----------------------------------------------------------------------------------|
|----------------------------------------------------------------------------------|
 *Tap w/edge of pick

    T      T            T      T            T      T            T      T
|--17p16--17p16p13p12--17p16--17p16p13p12--17p16--17p16p13p12--17p16--17p16p13p12--|
|----------------------------------------------------------------------------------|
|----------------------------------------------------------------------------------|
|----------------------------------------------------------------------------------|
|----------------------------------------------------------------------------------|
|----------------------------------------------------------------------------------|


|--------------------------------------------------------------------|
|--15----(15)p13p12--15------(15)p13p12--16p12h17p15----(15)p12--12--|
|--------------------------------------------------------------------|
|--------------------------------------------------------------------|
|--------------------------------------------------------------------|
|--------------------------------------------------------------------|

								       __________

|----------------------------------------------------------------|-------------------|
|-15p12--17p12---(15)p12--12--15p13p12--13p12--------------------|-15b17---------r15-|
|---------------------------------------------14--13--14b16--r13-|-------------------|
|----------------------------------------------------------------|-------------------|
|----------------------------------------------------------------|-------------------|
|----------------------------------------------------------------|-------------------|


|-----------------|--------------------------------|----------------------------|
|--15b17-~--~--~--|--(15)-~--~--~--15b17--r15--12--|--15----(15) w/bar ~-~------|
|-----------------|--------------------------------|----------------------------|
|-----------------|--------------------------------|----------------------------|
|-----------------|--------------------------------|----------------------------|
|-----------------|--------------------------------|----------------------------|


|----------16--17--17--17--|--(17)--16---------------------------|
|--16--17------------------|------------17p16--16-~-~--16--17p16\|
|--------------------------|-------------------------------------|
|--------------------------|-------------------------------------|
|--------------------------|-------------------------------------|
|--------------------------|-------------------------------------|

                                                     w/bar

|--------------------------------------|--------------------------|------------------|
|--12----(12)-~-~----12----12--12--12--|--12/15--15--15-~-~--~----|--(15)-~-~--------|
|--------------------12----12--12--12--|--12/15--15--15-~-~--~----|--(15)-~-~--------|
|--------------------12----12--12--12--|--12/15--15--15-~-~--~----|--(15)-~-~--------|
|--------------------------------------|--------------------------|------------------|
|--------------------------------------|--------------------------|------------------|

		     trem. picking-----|          w/bar                     
|------------------|----------------17/-|-19----19-~-~---|--22pbr--22pbr--b22-~------|
|--15--15--12--13--|--14-/-16-/-18--17/-|-19----19-~-~---|---------------------------|
|--15--15--12--13--|--14-/-16-/-18--17/-|-19----19-~-~---|---------------------------|
|------------------|--------------------|----------------|---------------------------|
|------------------|--//---//---//--//--|----------------|---------------------------|
|------------------|--------------------|----------------|---------------------------|


|-19p16----------19--19p16----------19--19p16--16----------19--19p16--16----------16-|
|--------17--17-------------17--17-----------------17--17-----------------17--17-----|
|------------------------------------------------------------------------------------|
|------------------------------------------------------------------------------------|
|------------------------------------------------------------------------------------|
|------------------------------------------------------------------------------------|


|--19p16--16\13--13--13h16p13--12--12--13p12-----12-----------------|
|--------------------------------------------15------15p13--13--13--|
|-------------------------------------------------------------------|
|-------------------------------------------------------------------|
|-------------------------------------------------------------------|
|-------------------------------------------------------------------|

|---------------------------|--------------------|
|--13h15p13---(13)-~--~--~--|--(13)--~--~--~--~--|
|---------------------------|--------------------|
|---------------------------|--------------------|
|---------------------------|--------------------|
|---------------------------|--------------------|


Outro Solo
w/ wah
|--16--16p13p12--16p13p12--16----12--16p13p12--16--(16)p13p12--|
|--------------------------------------------------------------|
|--------------------------------------------------------------|
|--------------------------------------------------------------|
|--------------------------------------------------------------|
|--------------------------------------------------------------|


                  T*                                       T*     T*

|--16p13p12--16--17p16--16p13p12--16p13p12--16p13p12--16--17p16--17p16p13p12--|
|-----------------------------------------------------------------------------|
|-----------------------------------------------------------------------------|
|-----------------------------------------------------------------------------|
|-----------------------------------------------------------------------------|
|-----------------------------------------------------------------------------|

                 *Tap w/edge of pick

|--13h16p13p12--13--13p12------12--13p12------12-----------------|
|--------------------------15-------------15------15p13------12--|
|--------------------------------------------------------15------|
|----------------------------------------------------------------|
|----------------------------------------------------------------|
|----------------------------------------------------------------|

|-------------------------------------------|-----------------------------|
|--13p12---------12-~-~--12-----------------|--15b17----15b17----15b17----|
|---------14p13--------------14p13--14-~-~--|-----------------------------|
|-------------------------------------------|-----------------------------|
|-------------------------------------------|-----------------------------|
|-------------------------------------------|-----------------------------|

                               T*     T*                     T*     T*

|------------------------12-|-17p16--17p16p13p12--16p13p12--17p16--17p16p13p12--16p13p12-|
|-15b17----15b17--r16-~-----|------------------------------------------------------------|
|---------------------------|------------------------------------------------------------|
|---------------------------|------------------------------------------------------------|
|---------------------------|------------------------------------------------------------|
|---------------------------|------------------------------------------------------------|

     
                        *Tap w/edge of pick
    T*     T*

|--17p16--17p16p13--12--16p13p12--16p13p12--12----12-~-~--------|
|--------------------------------------------------------13p12--|
|---------------------------------------------------------------|
|---------------------------------------------------------------|
|---------------------------------------------------------------|
|---------------------------------------------------------------|

|--------------------------------------------------------|
|--13p12-------------------12--13p12-----------------12--|
|---------14p13--14----14-------------14p13--14--14------|
|--------------------------------------------------------|
|--------------------------------------------------------|
|--------------------------------------------------------|

|----------------------------------------------------------|
|--13p12-------------------12--13p12-------------------12--|
|---------14p13--14----14-------------14p13--14----14------|
|----------------------------------------------------------|
|----------------------------------------------------------|
|----------------------------------------------------------|

|--------------------------------------------------------------|
|--13p12------13p12------12--13--13p12------12-------------12--|
|---------14---------14-----------------14------14p13--14------|
|--------------------------------------------------------------|
|--------------------------------------------------------------|
|--------------------------------------------------------------|

|--------------------------------------------------|
|--15pb17-~-~--15pb17-~-~--15pb17-~-~--15pb17-~-~--|
|--------------------------------------------------|
|--------------------------------------------------|
|--------------------------------------------------|
|--------------------------------------------------|


   Begin fade
|--16-16-16-16-16-16-16-16-16-16-16-16-17-17-17-17-17-17-17-17-17-17-17-17--|
|---------------------------------------------------------------------------|
|---------------------------------------------------------------------------|
|---------------------------------------------------------------------------|
|---------------------------------------------------------------------------|
|---------------------------------------------------------------------------|

|--19-19-19-19-19-19-19-19-19-19-19-19-22-22-22-22-22-22-22-22-22-22-22-17--|
|---------------------------------------------------------------------------|
|---------------------------------------------------------------------------|
|---------------------------------------------------------------------------|
|---------------------------------------------------------------------------|
|---------------------------------------------------------------------------|


|--22b24----22b24----22b24----22b24----|--22b24----22b24-~--~--~--~--|
|--------------------------------------|-----------------------------|
|--------------------------------------|-----------------------------|
|--------------------------------------|-----------------------------|
|--------------------------------------|-----------------------------|
|--------------------------------------|-----------------------------|

|------------------12------------------12---------------|
|--9h10--12--9h10------9h10--12--9h10------9h10--12--9h-|
|-------------------------------------------------------|
|-------------------------------------------------------|
|-------------------------------------------------------|
|-------------------------------------------------------|

|------------12------------------12------------------|
|--10--9h10------9h10--12--9h10------9h10--12--9h10--|
|----------------------------------------------------|
|----------------------------------------------------|
|----------------------------------------------------|
|----------------------------------------------------|


|-12---------------------------------------------|-12-~-~--12---------12-~-~--12----|
|-----9h10--12--12p10--10----9h10--12--9h10p9----|-----------9--10------------9--10-|
|----------------------------------------------9-|----------------------------------|
|------------------------------------------------|----------------------------------|
|------------------------------------------------|----------------------------------|
|------------------------------------------------|----------------------------------|

|-12--------------------12-------------------|-12---------------------10-~-~----12--13-|
|-----9--10--12--9--10------9--10--12--9--10-|-----9--10--12--10--12--------15---------|
|--------------------------------------------|-----------------------------------------|
|--------------------------------------------|-----------------------------------------|
|--------------------------------------------|-----------------------------------------|
|--------------------------------------------|-----------------------------------------|

|----16----13----12----12h13p12------12------------------|
|--------------------------------15------15--13--12--13--|
|--------------------------------------------------------|
|--------------------------------------------------------|
|--------------------------------------------------------|
|--------------------------------------------------------|


|-------------------------------------------------------12--|
|--13p12------------13p12---------13p12-------------12------|
|---------14p13h14---------14p13---------14p13--14----------|
|-----------------------------------------------------------|
|-----------------------------------------------------------|
|-----------------------------------------------------------|

|------------------------------------------------|
|------------------------13p12-------------------|
|--12---------12----------------14p13--14----12--|
|-------14p12------------------------------------|
|------------------------------------------------|
|------------------------------------------------|

      trem.bar  1  1                 1  1

                \/ \/                \/ \/ 

|------------------------------------------|--------------------------------------------|
|-13p12----------------13p12---------------|-13p12-------------13--13p12-------------12-|
|--------14p13--14p12---------14p13--14p12-|--------14p13--14-------------14p13--14-----|
|------------------------------------------|--------------------------------------------|
|------------------------------------------|--------------------------------------------|
|------------------------------------------|--------------------------------------------|

|--------12---------12---------12----------12---13-|-13--12--13-12-12-13-12-12-13-12-13-|
|-10h13------10h13------10h13-------10h13----------|------------------------------------|
|--------------------------------------------------|------------------------------------|
|--------------------------------------------------|------------------------------------|
|--------------------------------------------------|------------------------------------|
|--------------------------------------------------|------------------------------------|


|--16--12--13--16--16b17--16--17--19--16--20--17--21--18--22--|
|-------------------------------------------------------------|
|-------------------------------------------------------------|
|-------------------------------------------------------------|
|-------------------------------------------------------------|
|-------------------------------------------------------------|


				      Fade out

|--22b24----22b24----22b24-r22-b24------------|
|---------------------------------------------|
|---------------------------------------------|
|---------------------------------------------|
|---------------------------------------------|
|---------------------------------------------|





Comments


Popular Metallica tabs & chords
Enter Sandman 3 Bass Tabs
Free Speech For The Dumb Bass Tabs
Carpe Diem Baby Tabs
Cunning Stunts Kill-ride Medley Tabs
Hell And Back 3 Tabs
Master Of Puppets 5 Tabs
Ride The Lightning 2 Tabs
The Memory Remains Tabs
The Memory Remains 2 Tabs
The Shortest Straw 2 Tabs


Song lyrics



↑ Back to top | Tablatures and chords are parodies/interpretations of the original songs. You may use it for private study, scholarship, research or language learning purposes only
© 2014 AZChords.com Contact us | Privacy policy | DMCA | Add/correct tabs | Request tabs | Top 50 tabs