» » »

Welcome Home Tabs (ver.2)

Artists:  A B C D E F G H I J K L M N O P Q R S T U V W X Y Z # 

Welcome Home Tabs (ver.2)

Metallica
Rating:
0/5 (0 votes)

Hard to play? Try these video lessons and learn fast.
                Welcome Home (Sanitarium)
               By MetallicA



     This is the correct intro (this song kicks ass!)




       Intro:

     < >=Let ring if possible 
     /=slide
e|-------<12>-------------3---353--3/2-------------
B|-----------<12>----------------------------------
G|-------------------------------------------------
D|-------------------------------------------------
A|-------------------------------------------------
E|--0----------------------------------------------


e|-------<12>-------------2--2-3-------------------
B|------------<12>---------0-----------------------
G|-------------------------------------------------
D|-------------------------------------------------
A|-------------------------------------------------
E|--0----------------------------------------------


e|-------<12>--------------------<12>--------------
B|------------<12>---------------------<12>--------
G|-------------------------------------------------
D|-------------------------------------------------
A|-------------------------------------------------
E|--0---------------------0------------------------

e|-------<12>--------------------<12>--------------
B|------------<12>--------------------<12>---------
G|-----------------------------------------<12>----
D|-------------------------------------------------
A|-------------------------------------------------
E|--0---------------------0------------------------

      Repeat this  2 or 3 times
e|-------------------------------------------------
B|-------------------------------------------------
G|--------0-------0---------0----------------------
D|------4-------5---------7--------0---------------
A|----2-------3---------5--------4--------/2-----0-
E|--0-------0---------0--------5------5--3---3--5--
            
Hard to play? Try these video lessons and learn fast. | Correct




comments powered by Disqus
↑ Back to top | Tablatures and chords are parodies/interpretations of the original songs. You may use it for private study, scholarship, research or language learning purposes only