» » »

Metallica, We Did It Again Bass tabs (ver.1)

Artists:  A B C D E F G H I J K L M N O P Q R S T U V W X Y Z # 

We Did It Again Bass tabs (ver.1)

Metallica Tabs
 Rating:
4/5 (4 votes)
We Did It Again lessons Tabs too difficult? Try these video lessons and learn fast
                Album G.H.E.T.T.O. Stories
Bassist: James Hetfield

This is the new Metallica song, I guess.  The new Metallica riffs
anyways.  This is actually James on bass for this song.  Which was 
later sampled by Swizz Beatz.

Tuning is down 1/2 step

Intro:
|----------------|----------------|
|--------4-4-----|-------7-7------|  repeat 4 times
|-4-4--7------7--|--4-4------7----|
|----------------|----------------|

Verse:
|----------------|----------------|
|----------------|----------------|
|----------------|----------------|
|-6--8-8-8-8-8-8-|-6--8-8-8-8-8-8-|

|----------------|----------------|
|----------------|----------------|  repeat 4 times
|----------------|----------------|
|-6--8-8-8-8-8-8-|-6-8-5-6-3-5-0-2|

Chorus:
|----------------|----------------|
|--------4-4-----|-------7-7------|  repeat 4 times
|-4-4--7------7--|--4-4------7----|
|----------------|----------------|

After this, these same riffs are repeated with same number of times
The only variations are slight drum dropoffs or a lead guitar part.
            
Submit corrections

comments powered by Disqus
↑ Back to top | Metallica Bass for We Did It Again. Lyrics for acoustic guitar and electric guitar. Tablatures and chords are parodies/interpretations of the original songs. You may use it for private study, scholarship, research or language learning purposes only