>
 >
Untill It Sleeps

Untill It Sleeps Guitar Tabs

Metallica - Untill It Sleeps chords, tabs, tablatures, lyrics

Guitar lessons | Add/correct | Request | Top 50 tabs Artists:  A B C D E F G H I J K L M N O P Q R S T U V W X Y Z 0-9

Untill It Sleeps Guitar Tabs – Metallica

CD, Sheet music, Poster

Do you like Untill It Sleeps? Share with your friends now
Tabs
Tuning:down half step (Eb-Ab-Db-Gb-Bb-Eb)
for parts that are not distortion is clean which sometimes chours efects make it sound nice.
This has been my favorite song since i started listening to music and will always be.


all comments are appreciated!!!!!!!!!!!!!!!!!!!!!!!!
 Verse: Clean guitar.
     Am                                             
     |     |     |     |        |     |     |     |
Eb|--------0-----------------|--------------------------|
Bb|-----------3-----1-----0--|--------------------------|
Gb|--------------------------|-----2-----0--------------|
Db|-----2--------------------|--------------------------|
Ab|--0-----------------------|--------------------------|
Eb|--------------------------|--------------------------|
           v Push down ever so slightly on your trem bar
             here to get the surf guitar effect.
     |     |     |     |        |     |     |     |
Eb|--0-----------------------|--------------------------|
Bb|--1-----------------------|--------------------------|
Gb|--2-----------------------|--------------------------|
Db|--2-----------------------|--------------------------|
Ab|--0-----------------------|--------------------------|
Eb|--------------------------|--------------------------|
            "I run but it stays right by my side..."
                                               v Truckload of distortion
     Am                                          enters here.
     |     |     |     |        |     |     |     |
Eb|--------0-----------------|--------------------------|
Bb|-----------3-----1-----0--|--------------------------|
Gb|--------------------------|-----2-----0--------------|
Db|-----2--------------------|-----------------5--5--5--|
Ab|--0-----------------------|-----------------5--5--5--|
Eb|--------------------------|-----------------3--3--3--|
Chorus 1:

     |     |     |     |        |     |     |     |
Eb|--------------------------|----------------------------|
Bb|--------------------------|----------------------------|
Gb|--------5-----7--5-----4--|-----5-----4----b5-r4-------|
Db|--2-----7-----7--7-----5--|-----5-----5----------------|
Ab|--0--0-----0--------0-----|--------0-------------------|
Eb|--------------------------|----------------------------|
              pm       pm             pm
           "So tear me open, pull me out..."
     |     |     |     |        |     |     |     |
Eb|-----------------------------|----------------------------|
Bb|-----------------------------|----------------------------|
Gb|---------5-----7--5-----4--|-----5-----2---b3-r2-----|
Db|--2-----7-----7--7-----5--|-----5-----3---------------|
Ab|-----0-----0--------0-----|--------0-------------------|
Eb|-----------------------------|----------------------------|
              pm       pm             pm
     |     |     |     |        |     |     |     |
Eb|--------------------------|----------------------------|
Bb|--------------------------|----------------------------|
Gb|--------5-----7--5-----4--|-----5-----4----b5-r4-------|
Db|--2-----7-----7--7-----5--|-----5-----5----------------|
Ab|--0--0-----0--------0-----|--------0-------------------|
Eb|--------------------------|----------------------------|
              pm       pm             pm

     |     |     |     |        |     |     |     |
Eb|--------------------------|----------------------------|
Bb|--------------------------|----------------------------|
Gb|--------5-----7--5-----4--|-----5------9b10r9h10-------|
Db|--2-----7-----7--7-----5--|-----5------7---------------|
Ab|--0--0-----0--------0-----|--------0---0---------------|
Eb|--------------------------|----------------------------|
              pm       pm             pm
 Verse 2:
     Am                                             
     |     |     |     |        |     |     |     |
Eb|--------0-----------------|--------------------------|
Bb|-----------3-----1-----0--|--------------------------|
Gb|--------------------------|-----2-----0--------------|
Db|-----2--------------------|--------------------------|
Ab|--0-----------------------|-----------------------0--|
Eb|--------------------------|-----------------0--3-----|
     Am                         G           F             
     |     |     |     |        |     |     |     |
Eb|--------0-----------------|--------2-----------1-----|
Bb|-----------3-----1--------|--------2-----------1-----|
Gb|--------------------------|--------0-----------2-----|
Db|-----2--------------------|--------0-----------3-----|
Ab|--------------------------|--------2-----------3-----|
Eb|-----------------------0--|--3-----3-----1-----1-----|
     Am
     |     |     |     |        |     |     |     |
Eb|--0-----------------------|----------------------------|
Bb|--1-----------------------|----------------------------|
Gb|--2-----------------------|----------------------------|
Db|--2-----------------------|----------------------------|
Ab|--0-----------------------|----------------------------|
Eb|--------------------------|----------------------------|
           "Just like the curse, just like the stray..."
     Am                                             
     |     |     |     |        |     |     |     |
Eb|--------0-----------------|--------------------------|
Bb|-----------3-----1-----0--|--------------------------|
Gb|--------------------------|-----2-----0--------------|
Db|-----2--------------------|--------------------------|
Ab|--0-----------------------|--------------------------|
Eb|--------------------------|--------------------------|
     |     |     |     |        |     |     |     |
Eb|--0-----------------------|--------------------------|
Bb|--1-----------------------|--------------------------|
Gb|--2-----------------------|--------------------------|
Db|--2-----------------------|--------------------------|
Ab|--0-----------------------|--------------------------|
Eb|--------------------------|--------------------------|
           "You feed it once and now it stays..."
                                               v Distortion
     Am                                          again.
     |     |     |     |        |     |     |     |
Eb|--------0-----------------|--------------------------|
Bb|-----------3-----1-----0--|--------------------------|
Gb|--------------------------|-----2-----0--------------|
Db|-----2--------------------|-----------------5--5--5--|
Ab|--0-----------------------|-----------------5--5--5--|
Eb|--------------------------|-----------------3--3--3--|
Chorus 2:
     |     |     |     |        |     |     |     |
Eb|--------------------------|----------------------------|
Bb|--------------------------|----------------------------|
Gb|--------5-----7--5-----4--|-----5-----4----b5-r4-------|
Db|--2-----7-----7--7-----5--|-----5-----5----------------|
Ab|--0--0-----0--------0-----|--------0-------------------|
Eb|--------------------------|----------------------------|
              pm       pm             pm
     |     |     |     |        |     |     |     |
Eb|--------------------------|------------------------------|
Bb|--------------------------|------------------------------|
Gb|--------5-----7--5-----7--|-b9-r7-p5--7-b9r-7-p5h7p5p7h5-|
Db|--2-----7-----7--7--------|------------------------------|
Ab|--0--0-----0--------0-----|------------------------------|
Eb|--------------------------|------------------------------|
              pm       pm             pm
     |     |     |     |        |     |     |     |
Eb|--------------------------|----------------------------|
Bb|--------------------------|----------------------------|
Gb|--------5-----7--5-----4--|-----5-----4----b5-r4-------|
Db|--2-----7-----7--7-----5--|-----5-----5----------------|
Ab|--0--0-----0--------0-----|--------0-------------------|
Eb|--------------------------|----------------------------|
              pm       pm             pm
     |     |     |     |        |     |     |     |
Eb|--------------------------|----------------------------|
Bb|--------------------------|----------------------------|
Gb|--------5-----7--5-----4--|-----5-----2-----3----------|
Db|--2-----7-----7--7-----5--|-----5-----3-----3----------|
Ab|--0--0-----0--------0-----|--------0-------------------|
Eb|--------------------------|------------------------12\-|
              pm       pm             pm
                                            ???????
     |     |     |     |        |     |     |     |
Eb|--------------------------|----------------------------|
Bb|--------------------------|----------------------------|
Gb|--------------------------|--------------------11h12p11|
Db|--------5-----7--5-----4--|-----5-----5--4-----12------|
Ab|--------7-----7--7-----5--|-----5-----5--5-------------|
Eb|--0--------0--------0-----|--------0-------------------|
              pm       pm             pm
     |     |     |     |        |     |     |     |
Eb|--------------------------|----------------------------|
Bb|--------------------------|----------------------------|
Gb|--------------------------|----------------------------|
Db|--------5-----7--5-----4--|-----5-----5----------------|
Ab|--------7-----7--7-----5--|-----5-----6--------7\------|
Eb|--0--------0--------0-----|--------0-------0-0-0-------|
              pm       pm             pm
     |     |     |     |        |     |     |     |
Eb|--------------------------|----------------------------|
Bb|--------------------------|----------------------------|
Gb|--------------------------|--------------------11h12p11|
Db|--------5-----7--5-----4--|-----5-----5--4-----12------|
Ab|--------7-----7--7-----5--|-----5-----5--5-------------|
Eb|--0--------0--------0-----|--------0-------------------|
              pm       pm             pm
     |     |     |     |        |     |     |     |
Eb|--------------------------|----------------------------|
Bb|--------------------------|----------------------------|
Gb|--------------------------|----------------------------|
Db|--------5-----7--5-----4--|-----5-----5----------------|
Ab|--------7-----7--7-----5--|-----5-----6--------7\------|
Eb|--0--------0--------0-----|--------0-------0-0-0-------|
              pm       pm             pm
 Verse 3:
     Am                                             
     |     |     |     |        |     |     |     |
Eb|--------0-----------------|--------------------------|
Bb|-----------3-----1-----0--|--------------------------|
Gb|--------------------------|-----2-----0--------------|
Db|-----2--------------------|--------------------------|
Ab|--0-----------------------|-----------------------0--|
Eb|--------------------------|-----------------0--3-----|
     Am                         G           F             
     |     |     |     |        |     |     |     |
Eb|--------0-----------------|--------2-----------1-----|
Bb|-----------3-----1--------|--------2-----------1-----|
Gb|--------------------------|--------0-----------2-----|
Db|-----2--------------------|--------0-----------3-----|
Ab|--------------------------|--------2-----------3-----|
Eb|-----------------------0--|--3-----3-----1-----1-----|
     Am
     |     |     |     |        |     |     |     |
Eb|--0-----------------------|----------------------------|
Bb|--1-----------------------|----------------------------|
Gb|--2-----------------------|----------------------------|
Db|--2-----------------------|----------------------------|
Ab|--0-----------------------|----------------------------|
Eb|--------------------------|----------------------------|
           So tell me why you've chosen me...
     Am                                             
     |     |     |     |        |     |     |     |
Eb|--------0-----------------|--------------------------|
Bb|-----------3-----1-----0--|--------------------------|
Gb|--------------------------|-----2-----0--------------|
Db|-----2--------------------|--------------------------|
Ab|--0-----------------------|--------------------------|
Eb|--------------------------|--------------------------|
     |     |     |     |        |     |     |     |
Eb|--0-----------------------|--------------------------|
Bb|--1-----------------------|--------------------------|
Gb|--2-----------------------|--------------------------|
Db|--2-----------------------|--------------------------|
Ab|--0-----------------------|--------------------------|
Eb|--------------------------|--------------------------|
           Don't want your grip, don't want your greed...
                                               v Distortion
     Am                                          again.
     |     |     |     |        |     |     |     |
Eb|--------0-----------------|--------------------------|
Bb|-----------3-----1-----0--|--------------------------|
Gb|--------------------------|-----2-----0--------------|
Db|-----2--------------------|-----------------5--5--5--|
Ab|--0-----------------------|-----------------5--5--5--|
Eb|--------------------------|-----------------3--3--3--|
Chorus 3:
     |     |     |     |        |     |     |     |
Eb|--------------------------|----------------------------|
Bb|--------------------------|----------------------------|
Gb|--------5-----7--5-----4--|-----5-----4----b5-r4-------|
Db|--2-----7-----7--7-----5--|-----5-----5----------------|
Ab|--0--0-----0--------0-----|--------0-------------------|
Eb|--------------------------|----------------------------|
              pm       pm             pm
     |     |     |     |        |     |     |     |
Eb|--------------------------|------------------------------|
Bb|--------------------------|------------------------------|
Gb|--------5-----7--5-----7--|-b9-r7-p5--7-b9r-7-p5h7p5p7h5-|
Db|--2-----7-----7--7--------|------------------------------|
Ab|--0--0-----0--------0-----|------------------------------|
Eb|--------------------------|------------------------------|
              pm       pm             pm
     |     |     |     |        |     |     |     |
Eb|--------------------------|----------------------------|
Bb|--------------------------|----------------------------|
Gb|--------5-----7--5-----4--|-----5-----4----b5-r4-------|
Db|--2-----7-----7--7-----5--|-----5-----5----------------|
Ab|--0--0-----0--------0-----|--------0-------------------|
Eb|--------------------------|----------------------------|
              pm       pm             pm
     |     |     |     |        |     |     |     |
Eb|--------------------------|----------------------------|
Bb|--------------------------|----------------------------|
Gb|--------5-----7--5-----4--|-----5-----2-----3----------|
Db|--2-----7-----7--7-----5--|-----5-----3-----3----------|
Ab|--0--0-----0--------0-----|--------0-------------------|
Eb|--------------------------|------------------------12\-|
              pm       pm             pm
                                            ???????
     |     |     |     |        |     |     |     |
Eb|--------------------------|----------------------------|
Bb|--------------------------|----------------------------|
Gb|--------------------------|--------------------11h12p11|
Db|--------5-----7--5-----4--|-----5-----5--4-----12------|
Ab|--------7-----7--7-----5--|-----5-----5--5-------------|
Eb|--0--------0--------0-----|--------0-------------------|
              pm       pm             pm
     |     |     |     |        |     |     |     |
Eb|--------------------------|----------------------------|
Bb|--------------------------|----------------------------|
Gb|--------------------------|----------------------------|
Db|--------5-----7--5-----4--|-----5-----5----------------|
Ab|--------7-----7--7-----5--|-----5-----6--------7\------|
Eb|--0--------0--------0-----|--------0-------0-0-0-------|
              pm       pm             pm
     |     |     |     |        |     |     |     |
Eb|--------------------------|----------------------------|
Bb|--------------------------|----------------------------|
Gb|--------------------------|--------------------11h12p11|
Db|--------5-----7--5-----4--|-----5-----5--4-----12------|
Ab|--------7-----7--7-----5--|-----5-----5--5-------------|
Eb|--0--------0--------0-----|--------0-------------------|
              pm       pm             pm
     |     |     |     |        |     |     |     |
Eb|--------------------------|----------------------------|
Bb|--------------------------|----------------------------|
Gb|--------------------------|----------------------------|
Db|--------5-----7--5-----4--|-----5-----5----------------|
Ab|--------7-----7--7-----5--|-----5-----6--------7\------|
Eb|--0--------0--------0-----|--------0-------0-0-0-------|
              pm       pm             pm
Interlude:
                                             Repeat 3 times.
     |     |     |     |        |     |     |     |
Eb|--0-----------------------|----------------------------||
Bb|--1-----------------------|----------------------------||
Gb|--2-----------------------|----------------------------|o
Db|--2-----------------------|----------------------------|o
Ab|--0-----------------------|----------------------------||
Eb|--------------------------|----------------------------||
     |     |     |     |        |     |     |     |
Eb|--0-----------------------|---------------------------|
Bb|--1-----------------------|---------------------------|
Gb|--2-----------------------|---------------------------|
Db|--2-----------------------|---------------------------|
Ab|--0-----------------------|-----------------0--2--3---|
Eb|--------------------------|---------------------------|
       |     |     |     |        |     |     |     |
Eb|-----------0--------------|---------------------------||
Bb|-----------------3-----1--|-----0---------------------||
Gb|--------------------------|---------------------------|o
Db|-----2--------------------|---------------------------|o
Ab|--0-----------------------|---------------------------||
Eb|--------------------------|---------------------------||
     |     |     |     |        |     |     |     |
Eb|-----------0--------------|-----0----------------------|
Bb|-----------------3-----1--|-----0----------------------|
Gb|--------------------------|-----2----------------------|
Db|-----2--------------------|-----2----------------------|
Ab|--0-----------------------|-----0----------------------|
Eb|--------------------------|----------------------------|
     |     |     |     |        |     |     |     |
Eb|--0-----------------------|----------------------------|
Bb|--1-----------------------|----------------------------|
Gb|--2-----------------------|----------------------------|
Db|--2-----------------------|----------------------------|
Ab|--0-----------------------|----------------------------|
Eb|--------------------------|----------------------------|
Chorus 4:
     |     |     |     |        |     |     |     |
Eb|--------------------------|----------------------------|
Bb|--------------------------|----------------------------|
Gb|--------5-----7--5-----4--|-----5-----4----b5-r4-------|
Db|--2-----7-----7--7-----5--|-----5-----5----------------|
Ab|--0--0-----0--------0-----|--------0-------------------|
Eb|--------------------------|----------------------------|
              pm       pm             pm
     |     |     |     |        |     |     |     |
Eb|--------------------------|------------------------------|
Bb|--------------------------|------------------------------|
Gb|--------5-----7--5-----7--|-b9-r7-p5--7-b9r-7-p5h7p5p7h5-|
Db|--2-----7-----7--7--------|------------------------------|
Ab|--0--0-----0--------0-----|------------------------------|
Eb|--------------------------|------------------------------|
              pm       pm             pm
     |     |     |     |        |     |     |     |
Eb|--------------------------|----------------------------|
Bb|--------------------------|----------------------------|
Gb|--------5-----7--5-----4--|-----5-----4----b5-r4-------|
Db|--2-----7-----7--7-----5--|-----5-----5----------------|
Ab|--0--0-----0--------0-----|--------0-------------------|
Eb|--------------------------|----------------------------|
              pm       pm             pm
     |     |     |     |        |     |     |     |
Eb|--------------------------|---------------------------|
Bb|--------------------------|---------------------------|
Gb|--------5-----7--5-----4--|-----5-----2-----3---------|
Db|--2-----7-----7--7-----5--|-----5-----3-----3---------|
Ab|--0--0-----0--------0-----|--------0--------------5---|
Eb|--------------------------|-----------------------3---|
              pm       pm             pm
                                           Repeat 4 times.
     |     |     |     |        |     |     |     |
Eb|--------------------------|---------------------------||
Bb|--------------------------|---------------------------||
Gb|--------------------------|---------------------------|o
Db|--2--2--0--2--2--2--------|--2--2--0--3--3--3---------|o
Ab|--0--0--0--0--0--0-----5--|--0--0--0--0--0--0-----5---||
Eb|-----------------------3--|-----------------------3---||
        |     |     |     |        |     |     |     |
Eb|--------0-----------------|--------------------------|
Bb|-----------3-----1-----0--|--------------------------|
Gb|--------------------------|-----2-----0-----2--------|
Db|-----2--------------------|--------------------------|
Ab|--0-----------------------|--------------------------|
Eb|--------------------------|--------------------0--3--|
     |     |     |     |        |     |     |     |
Eb|--------0-----------------|--------------------------|
Bb|-----------3-----1-----0--|--------------------------|
Gb|--------------------------|-----2-----0-----2--------|
Db|-----2--------------------|--------------------------|
Ab|--0-----------------------|--------------------------|
Eb|--------------------------|--------------------------|
     |     |     |     |        |     |     |     |
Eb|--0-----------------------|--------------------------||
Bb|--1-----------------------|--------------------------||
Gb|--2-----------------------|--------------------------||
Db|--2-----------------------|--------------------------||
Ab|--0-----------------------|--------------------------||
Eb|--------------------------|--------------------------||


Notation:                                                        
 x = Mute by gently placing left hand on string(s)
     and striking with pick.
pm = Palm mute.
 ~ = Vibrato or slight string bend 
 / = Slide up.
 \ = Slide Down.
 b = Bend
 r = Release Bend





Comments


Popular Metallica tabs & chords
Anesthesia 1 Bass Tabs
Merciful Fate 1 Bass Tabs
Dead Mans March Before Fuel On Sampm Tabs
Follow Me Tabs
Guitar Solo Live In Texas Tabs
Holier Than Thou Tabs
Intro Justice Tabs
Jump In The Fire 1 Tabs
The God That Failed 5 Tabs
Whiskey In The Jar 2 Tabs


Song lyrics



↑ Back to top | Tablatures and chords are parodies/interpretations of the original songs. You may use it for private study, scholarship, research or language learning purposes only
© 2014 AZChords.com Contact us | Privacy policy | DMCA | Add/correct tabs | Request tabs | Top 50 tabs