» » »

Metallica, The Unforgiven Tabs (ver.4)

Artists:  A B C D E F G H I J K L M N O P Q R S T U V W X Y Z # 

The Unforgiven Tabs (ver.4)

Metallica Tabs
Rating:
0/5 (0 votes)
The Unforgiven lessons Tabs too difficult? Try these video lessons and learn fast
                ---7b----7b-----------------------------------------------------------
---7b----7b----5------------------------------------------------------
------------------7----7b----5----------------------------------------
--------------------------------7---5/3--5--3----------------3b-------
------------------------------------------------5---3---5-------------


-----------------------------------------------------------8-----------
---------------------------------7-----7---8----7h9---10-------10------
-----------5----7---5--7--7/9-------9----------------------------------
----/7-----------------------------------------------------------------


----------10----------------------------------------------20b---20b---
-(10)10------10--------20~~~~~~~~~~---(20)-----20b--17----------------


--20b--17--17--20p17-----17------------------------10p9--7--9----9----
----------------------20----20-(20)---------------------------10------
---------------------------------------------/9-----------------------
----------------------------------------/17---------------------------


--------------------------------------------------12-------12-------12
---8---7---7-----------------------------------13----13-------13------
---------9----9--7/5--7--5/4---5--4--2---/14------------14-------14---



--------12-------12--------12-------12-------------------------------------17--19
-13--------13-------13--------13-------13----------------------20b--20b~~~------
----14--------14-------14--------14-------14---19b---19b---17-------------------



--20-19-17-19-17h19p17---------------------------------------
-----------------------20-------------------------------------------


that is all sorry
 tabed by Sean Coleman
            

comments powered by Disqus
↑ Back to top | Metallica Tabs for The Unforgiven. Lyrics for acoustic guitar and electric guitar. Tablatures and chords are parodies/interpretations of the original songs. You may use it for private study, scholarship, research or language learning purposes only