» » »

Metallica, Trapped Under Ice Tabs (ver.3)

Artists:  A B C D E F G H I J K L M N O P Q R S T U V W X Y Z # 

Trapped Under Ice Tabs (ver.3)

Metallica Tabs
Rating:
0/5 (0 votes)
Trapped Under Ice lessons Tabs too difficult? Try these video lessons and learn fast
                Intro:
Clean:
|-------------------------------------------------------
|-0-------0---------------------------------------------
|-0-------0-------4-----4------4-----3------3-----0-----
|-2-------2---------2------------2------------2---------
|-2-------3-----------3-----3------3-----3------3-------
|-0-----------------------------------------------------

Intro Fill
|----------
|----------
|----------
|----------
|---3-2-0--
|-0--------


Distortion on:
|----------------------------------------------------------------
|-----------------------4------------------------------4---4---4-
|-4-4-4-4-4-----4---4------------4-4-4-4-4-----4---4-------------   Play 4
|-3-3-3-3-3-----2---2-------2----3-3-3-3-3-----2---2-------------    Times
|----------------------------------------------------------------
|-------------0------------------------------0-------------------

Verse:
|---------------------------------------
|---------------------------------------
|----------------------------4-4--------
|----------------------------2-2--------
|-5-5-5-5-5-5-5-5-----------------------
|-3-3-3-3-3-3-3-3-3p5h3--0-0------------

Chorus:
|----------------------------------------------------
|----------------------------------------------------
|-7-7--7-----6-6--6-----3-3--3-----------------------
|-7-7--7-----6-6--6-----3-3--3---5-5-5-5-5-5-5-5-----
|-5-5--5-----4-4--4-----1-1--1---5-5-5-5-5-5-5-5-----
|--------------------------------3-3-3-3-3-3-3-3-----

After chorus
clean:
|-0---0---0---0---0---0---0---0---0------------------------------
|---1---1---1---1---1---1---1---1--------------------------------
|----------------------------------------------------------------
|----------------------------------------------------------------
|----------------------------------------------------------------
|----------------------------------------------------------------
            
Submit corrections

comments powered by Disqus
↑ Back to top | Metallica Tabs for Trapped Under Ice. Lyrics for acoustic guitar and electric guitar. Tablatures and chords are parodies/interpretations of the original songs. You may use it for private study, scholarship, research or language learning purposes only