>
 >
Throgh The Never

Throgh The Never Bass Tabs

Metallica - Throgh The Never chords, tabs, tablatures, lyrics

Guitar lessons | Add/correct | Request | Top 50 tabs Artists:  A B C D E F G H I J K L M N O P Q R S T U V W X Y Z 0-9

Throgh The Never Bass Tabs – Metallica

CD, Sheet music, Poster

Do you like Throgh The Never? Share with your friends now
Bass Tabs
Intro (guitar)
              (12)
          ||---------|----------||
          ||----r----|----------||
          ||---------|----------||
          ||---------|--------3-||
          
          /--Bass fig.1--------\
          ||------------------|-----------------|---------|---------------|
          ||o-----------------|-----------------|----%----|---------------|
          ||o-----4-------3---|-----4-------3---|---------|-----4---------|
          ||--0-2---2-0-2---2-|-0-2---2-0-2---2-|---------|-0-2---2-0-2-3-|
          
          |-----------------|-----------------|-------|
          |-----------------|-----------------|---%---|
          |-----4-------3---|-----4-------3---|-------|
          |-0-2---2-0-2---2-|-0-2---2-0-2---2-|-------|
           ______________
          |1.
          |-------------||
          |------------o||
          |------------o||
          |-0-0-------3-||
           ______________
          |2.
          |--------|--------||
          |--------|----r---||
          |--------|--------||
          |-0-0----|--------||
          
          
          (Half time feel)
          1st, 2nd verses
          ||-----------------|-----------------|----------------|-----------------|
          ||-----------------|-----------------|----------------|-------------0-2-|
          ||-----------------|-----------------|----------------|-0-1-0-----------|
          ||-0---0-0-0-0-0-0-|-0-0-0-0-0-0-0-0-|-0-5-----0-6----|-------3-1-0-----|
          
          |-----------------|-----------------|-----------------|-----------------|
          |-3-2-------------|-----------------|-----------------|-------------0-2-|
          |-----------------|-----------------|-----------------|-0-1-0-----------|
          |-----0-0-0-0-0-0-|-0-0-0-0-0-0-0-0-|-0-5------0-6----|-------3-1-0-----|
          
          |-----------------|-----------------|-----------------|-----------------|
          |-3-2-------------|-----------------|-----------------|-----------------|
          |-----------------|---------7-5-----|-----------------|-----------5-7---|
          |-----0-0-0-0-0-0-|-0-0-5-7-----7-5-|-0-0-0-0-0-0-0-0-|-0-0-0-5-7-----0-|
          
          |-----------------|-----------------|-----------------|-----------------|
          |-----------------|-----------------|-----------------|-----------------|
          |-----------------|-----------5-7---|-----------------|-----------------|
          |-0-0-0-0-0-0-0-0-|-0-0-0-5-7-----0-|-0-5------0-6----|-0-0-0-0-0-0-0-0-|
          
          |-----------------|-----------------|-----------------|-----------------|
          |-----------------|-----------------|--------%--------|-----------------|
          |---------7-5-----|-----------------|-----------------|-----------------|
          |-0-0-0-0-----7-5-|-3-3-3-3-3-3-3-3-|-----------------|-2-2-2-2-2-2-2-2-|
          
          |-----------------|-----------------|-----------------|
          |-----------------|-----------------|-------------0-2-|
          |-----------------|-----------------|-0-1-0-----------|
          |-2-2-2-2-2-2-2-2-|-0-5------0-6----|-------3-1-0-----|
          
          Play Bass. fig.1 (4 times)
          
          Chorus
            Bass fig.2                             (end bass fig.2)---\
          ||-----------------|-------|-------|-------|-----------------|--------------|
          ||-----------------|---%---|---%---|---%---|-----------------|--------------|
          ||-----------------|-------|-------|-------|-----------------|--------------|
          ||-0-2-2-2-0-2-2-2-|-------|-------|-------|-0-2-----0-2-----|-0-2-----0-2--|
              H       H
          
          |----------||
          |----------||
          |----------||
          |-----3----||
          
          ||------------------|-----------------|---------|
          ||o-----------------|-----------------|----%----|
          ||o-----4-------3---|-----4-------3---|---------|
          ||--0-2---2-0-2---2-|-0-2---2-0-2---2-|---------|
           _______________
          |1.
          |---------------||
          |--------------o||
          |-----4--------o||
          |-0-2---2-0-2-3-||
           _______________
          |2.
          |------------|-----------------||
          |------------|-------------0-2-||
          |------------|-0-1-0-----------||
          |-0-0--------|-------3-1-0-----||
          
          |--------------|-2-3-2-0---------|--------------||
          |--------------|---------3-2-0---|--------------||
          |--------------|-----------------|--------------||
          |-0-2-----0-2--|-----------------|-0-1--2--3--4-||
          
          
          Guitar solo
          
          ||------------------|-------|-------|-----------------|
          ||o-0-2-2-2-0-2-2-2-|---%---|---%---|-0-2-2-2-0-2-3---|
          ||o-----------------|-------|-------|-----------------|
          ||------------------|-------|-------|-----------------|
          
          |-----------------|-------|-------|
          |-----------------|---%---|---%---|
          |-0-2-2-2-0-2-2-2-|-------|-------|
          |-----------------|-------|-------|
           ____________________
          |1.
          |------------------||
          |-----------------o||
          |-0-0---0---3---3-o||
          |------------------||
           ___________________
          |2.
          |-----------------||
          |-----------------||
          |-----------3---3-||
          |-0-0---0---------||
          
          |-----------------|-------|-------|-----------------------||
          |-----------------|---%---|---%---|-----------------------||
          |-----------------|-------|-------|/12-12-12-12-12-12-3---||
          |-3-5-5-5-3-5-5-5-|-------|-------|-----------------------||
          
          |-----------------|-------|-------|-------|-------------|-------------||
          |-----------------|---%---|---%---|---%---|-------------|-------------||
          |-----------------|-------|-------|-------|-------------|-------------||
          |-0-2-2-2-0-2-2-2-|-------|-------|-------|-0-2----0-2--|-0-2----0-2--||
          
          |-------|-------|-------|--------|
          |---r---|---r---|-19\---|-(7)\---|
          |-------|-------|-------|--------|
          |-------|-------|-------|--------|
          
            Bass fig.3-------------------------\ (play 16 times)
          ||------------------|-----------------||
          ||o-----------------|----------------o||
          ||o-----------------|-1--------------o||
          ||--0---0-0-3---0-0-|-----3---3---3---||
          
          |----------|----------|----------|-----------||
          |----------|----------|----------|-----------||
          |----------|----------|----------|-----------||
          |-0--------|-(0)------|-(0)------|-(0)-----3-||
          
          
          Play bass fig.1 (4 times)
          
          ||-----------------|-------|--------------|-------|--------||
          ||-----------------|---%---|--------------|---%---|--------||
          ||-----------------|-------|--------------|-------|--------||
          ||-0-2-2-2-0-2-2-2-|-------|-0-2-----0-2--|-------|------3-||
          
          ||-----------------|-----------------|-------|-----------||
          ||-----------------|-----------------|---%---|-----------||
          ||-----4-------3---|-----4-------3---|-------|-----------||
          ||-0-2---2-0-2---2-|-0-2---2-0-2---2-|-------|-3-3-------||





Comments


Popular Metallica tabs & chords
Enter Sandman 3 Bass Tabs
Hit The Lights 2 Bass Tabs
My Friend Of Myserie Bass Tabs
Escape Drum Tabs
Ain't My Bitch 1 Tabs
Battery 5 Tabs
Call Of Kutulu Tabs
Enter Sandman 6 Tabs
Fuel 3 Tabs
Hell And Back 3 Tabs


Song lyrics



↑ Back to top | Tablatures and chords are parodies/interpretations of the original songs. You may use it for private study, scholarship, research or language learning purposes only
© 2014 AZChords.com Contact us | Privacy policy | DMCA | Add/correct tabs | Request tabs | Top 50 tabs