>
 >
The Thing That Should Not Be 2

The Thing That Should Not Be 2 Guitar Tabs

Metallica - The Thing That Should Not Be 2 chords, tabs, tablatures, lyrics

Guitar lessons | Add/correct | Request | Top 50 tabs Artists:  A B C D E F G H I J K L M N O P Q R S T U V W X Y Z 0-9

The Thing That Should Not Be 2 Guitar Tabs – Metallica

CD, Sheet music, Poster

Do you like The Thing That Should Not Be 2? Share with your friends now
TabsTabs v2Tabs v3
TABER: GORILLABREATH (CHRISTIAN)


tune 6 string to D
accoustic gtr.

riff 1
|----|----------------|----------------|----------------|
|----|----------------|----------------|----------------|
|----|----------------|----------------|----------------|
|----|----------------|----------------|----------------|
|--0-|2---------------|--------------0-|2---------------|
|--0-|2---------------|--------------0-|2---------------|

riff 2
|----------------|----------------|----------------|
|----------------|----------------|----------------|
|----------------|----------------|----------------|
|----------------|----------------|----------------|
|--------------0-|2-----1-------2-|------3---------|
|--------------0-|2-----------2---|----2-----------| 

riff 3
--p.m-
|----------------|----------------|
|----------------|----------------|
|------3-------4-|------5---------|
|------3-------4-|------5---------|
|0-1-2-1-------2-|------3-------0-|
|0-1-2-------2---|----2---------0-|

riff 4
--p.m-
|----------------|----------------|
|----------------|----------------|
|------3-------4-|------5---------|
|------3-------4-|------5---------|
|0-1-2-1-------2-|------3-------0-|
|0-1-2-----1-2---|--1-2-----1-2-0-|

riff 5
|----------------||----------------|----------------|----------------|-
|----------------||----------------|----------------|----------------|-
|--------5---5---||1-------1---1---|2-------2---2---|4---------------|--
|--------5---5---||1-------1---1---|2-------2---2---|4---------------|2-
|7-7-7-7---7-----||--3-3-3---3-----|--4-4-4---4-----|--1-1-1-1-1-1-1-|2-
|7-7-7-7---7-----||--3-3-3---3-----|--4-4-4---4-----|--1-1-1-1-1-1-1-|2-

riff 6
|----------------|----------------|----------------|
|----------------|----------------|----------------|
|2-------3-------|--6-----6-------|----------------|
|2-------3-------|--6-----6-------|----------------|
|0-------1-------|5-6---5-6-0-0-0-|0-0-0-0-0-0-0-0-|
|----------------|5-6---5-6-0-0-0-|0-0-0-0-0-0-0-0-|

Solo: W/WAMMY PEDAL/bar
|----------------|----------------|----------------|--------------7-h10|
|----------------|----------------|----------------|-------------------|
|----------------|----------------|----------------|-------------------|
|----------------|----------------|----------------|-------------------|
|----------------|----------------|----------------|-------------------|
|----------------|----------------|----------------|-------------------|

|p7-h10-p7-h10-p7-h10-p7-h10-p7-h10-p7-h10-p7-h10-p7-h10-p7-h10-p7-h10
|---------------------------------------------------------------------
|---------------------------------------------------------------------
|---------------------------------------------------------------------
|---------------------------------------------------------------------
|---------------------------------------------------------------------
trill

p7-h10-p7-h10-p7-h10-p7-h10-p7-h10-p7-h10|
-----------------------------------------|
-----------------------------------------|
-----------------------------------------|
-----------------------------------------|
-----------------------------------------|

|p7-h10-p7-h10-------------------------------10-10-10-10|
|--------------/17-b19-~--------------------------------|
|-------------------------------------------------------|
|-------------------------------------------------------|
|-------------------------------------------------------|
|-------------------------------------------------------|

|14-p11-p10-14-p11-p10-14-p11-p10-14-p11-p10-14-p11-p10-14-p11-p10-14-p11
|------------------------------------------------------------------------
|------------------------------------------------------------------------
|------------------------------------------------------------------------
|------------------------------------------------------------------------
|------------------------------------------------------------------------

p10-14-p11-p10|14-p11-p10-14-p11-p10-14-p11-p10---------------|
--------------|---------------------------------13-b16-----\--|
--------------|-----------------------------------------------|
--------------|-----------------------------------------------|
--------------|-----------------------------------------------|
--------------|-----------------------------------------------|

|--------------9-10--9-h10-p-9------------------------|
|--------9-10------------------10--9------------------|
|-9-h10------------------------------11-10------------|
|------------------------------------------12-11--8--7|
|-----------------------------------------------------|
|-----------------------------------------------------|

|----------------------|
|----------------------|
|----------------------|
|8-h9---8~--------\----|
|----------------------|
|----------------------|

\
|---------14-p11-p10-14-p11-p10-14-p11-p10-14-p11-p10|
|----------------------------------------------------|
|0\--------------------------------------------------|
|----------------------------------------------------|
|----------------------------------------------------|
|----------------------------------------------------|
w Wammy bar

|14-p11-p10-14-p11-p10-14-p11-p10-/-------------|
|-----------------------------------------------|
|------------------------------------12---12~---|
|-----------------------------------------------|
|-----------------------------------------------|
|-----------------------------------------------|





Comments


Popular Metallica tabs & chords
Attitude 1 Tabs
Better Than You Tabs
Broken Beat And Scarred Intro 1 Tabs
Disposable Heroes 5 Tabs
Dyers Eve 3 Tabs
Frayed Tabs
Jump In The Fire 2 Tabs
Last Caress 1 Tabs
Reload Solos 1 Thru Tabs
The Four Horsemen 2 Tabs


Song lyrics



↑ Back to top | Tablatures and chords are parodies/interpretations of the original songs. You may use it for private study, scholarship, research or language learning purposes only
© 2014 AZChords.com Contact us | Privacy policy | DMCA | Add/correct tabs | Request tabs | Top 50 tabs