» » »

The House Jack Built Tabs (ver.2)

Artists:  A B C D E F G H I J K L M N O P Q R S T U V W X Y Z # 

The House Jack Built Tabs (ver.2)

Metallica
Rating:
0/5 (0 votes)

Hard to play? Try these video lessons and learn fast.
                Intro:
Riff1:
|-----------------
|-----------------
|-----------------
|-----3-------5---
|---3-------5-----
|-1-----1/3-------

Fill
|------------------------------
|------------------------------
|-----------------5-------7----
|-3-------5--------------------
|-----------------3-------5----
|-1-------3--------------------

|--------------------------------------------
|--------------------------------------------
|-5-------7-------10------12------5-------7--
|--------------------------------------------
|-3-------5--------8------10------3-------5--
|--------------------------------------------

Fill
|--------------------
|--------------------
|--------------------
|-3-------5----------
|-3-------5----------
|-1-------3----------

right before riff 2:
|-------------------
|-------------------
|-------------------
|-3-----------------
|-3-3-3-3-3-3-3-----
|-1-1-1-1-1-1-1-0---

riff 2:
|---------------------------------------------------------------------------------
|------------------------------------------------------------------0--------------
|----------------------------------------------------------------2-------4-----2--
|-5--3h5p3p0--2b-------5--3h5p3p0--2b-------5--3h5p3p0--2b-----3-----3/5---53----
|---------------------------------------------------------------------------------
|------------------0--------------------0-----------------------------------------

verse:
riff 3:
|--------------------------------------------------------------------------
|--------------------------------------------------------------------------
|--------------------------------------------------------------------------
|--------------------------------------------------------------------------
|-7--------7---------------7--------7---------------7--------7-------------
|-6--0--0--6--0--0--0-0--0-6--0--0--6--0--0--0-0--0-6--0--0--6--0--0--0-0--

|-----------------------------------------
|-----------------------------------------
|-----------------------------------------
|-----------------------------------------
|----------4/5------5/7------7/8----------
|-0h2-2--2-2/3-3--3-3/5-5--5-5/6--6--6----

"The higher you are...":
|---------------------------------------------------------
|---------------------------------------------------------
|-----------------5-----7------10-------12------7---7----
|-----3-----5---5-----7-----10-------12------5--7---7----
|---3-----5---3-----5-----8-------10-------3----5---5----
|-1-----3-------------------------------------------------

|---------------------------------------------------------
|---------------------------------------------------------
|-----------------5-----7---------------------------------
|-----3-----5---5-----7----10b----8-------------8---8-----
|---3-----5---3-----5------8------8---10---8----8---8-----
|-1-----3-----------------------------8----8----6---6-----
            
Hard to play? Try these video lessons and learn fast. | Correct




comments powered by Disqus
↑ Back to top | Tablatures and chords are parodies/interpretations of the original songs. You may use it for private study, scholarship, research or language learning purposes only