» » »

The Good The Bad And The Ugly Tabs (ver.1)

Artists:  A B C D E F G H I J K L M N O P Q R S T U V W X Y Z # 

The Good The Bad And The Ugly Tabs (ver.1)

Metallica
Rating:
0/5 (0 votes)

Hard to play? Try these video lessons and learn fast.
                (Intro)
Hi,

This is only the Intro/Main Theme of the song. Hope you like it!

ernez ?ô


Intro/Main theme
e|-----------------------------|---------------------|-----------------------------|
B|-10h15p10h15p10--------------|---------------------|-10h15p10h15p10--------------|
G|-----------------------------|-12------------------|-----------------------------|
D|----------------------/15----|-------12------------|----------------------/15----|
A|-----------------------------|---------------------|-----------------------------|
E|-----------------------------|---------------------|-----------------------------|


|---------------------|---------------------------|-----------------------|
|-------13------------|-10h15p10h15---------------|-----------------------|
|-12------------------|---------------------------|-----------------------|
|---------------------|--------------------/15----|-14--12----------------|
|---------------------|---------------------------|---------15------------|
|---------------------|---------------------------|-----------------------|


|-----------------------------|-------------------|
|-10h15p10h15p10--------------|-------------------|
|----------------------/12----|-------------------|
|-----------------------------|-12----------------|
|-----------------------------|-------------------|
|-----------------------------|-------------------|
            
Hard to play? Try these video lessons and learn fast. | Correct




comments powered by Disqus
↑ Back to top | Tablatures and chords are parodies/interpretations of the original songs. You may use it for private study, scholarship, research or language learning purposes only