» » »

Metallica, The God That Failed Tabs (ver.1)

Artists:  A B C D E F G H I J K L M N O P Q R S T U V W X Y Z # 

The God That Failed Tabs (ver.1)

Metallica Tabs
Rating:
0/5 (0 votes)
The God That Failed lessons Tabs too difficult? Try these video lessons and learn fast
                Band Metallica
Song The god that failed
Album Metallica


)= Bend		\= Slide Down
~= Tremolo	/= Slide Up
h= Hammer On	x= Mute
p= Pull Off

Intro:
Eb|----------------------------------------------------
Bb|----------------------------------------------------
Gb|----------------------------------------------------
Db|---------9-9----------------------9-9---------------
Ab|--10-7-----7-10-10-7~---10-10-7-----7-10-10-7~----
Eb|----------------------------------------------------

Chorus:
Eb|----------------------------------------------------
Bb|----------------------------------------------------
Gb|----------------------------------------------------
Db|-----------9-9---------------9-----------7----------
Ab|-10-10-7-------7-----10-10-7---7-10-10-7---7-10-10--
Eb|---------0-------0----------------------------------

Eb|----------------------------------------------------
Bb|----------------------------------------------------
Gb|----------------------------------------------------
Db|---------------------9---4h5p4----------------------
Ab|-7---5-5-7---10-10-7---7-2-----7-5-4\2--------------
Eb|---0-------0-------------0-------------5-3----------

Verse:
(Part 1)
Eb:----------------------------------------------------
Bb:----------------------------------------------------
Gb:----------------------------------------------------
Db:-3-2-2-2-3-2-2-2-3-2-2-5-2-3-2-2-2------------------
Ab:-3-2-2-2-3-2-2-2-3-2-2-5-2-3-2-2-2------------------
Eb:-1-0-0-0-1-0-0-0-1-0-0-3-0-1-0-0-0------------------

(Part 2)
Eb:----------------------------------------------------
Bb:----------------------------------------------------
Gb:----------------------------------------------------
Db:-3-2-3-3-3-2-3-3-3-2-3/5-2-5-2-3-3-3----------------
Ab:-3-2-3-3-3-2-3-3-3-2-3/5-2-5-2-3-3-3----------------
Eb:-1-0-1-1-1-0-1-1-1-0-1/3-0-3-0-1-1-1----------------

Bridge
Eb|----------------------------------------------------
Bb|----------------------------------------------------
Gb|----------------------------------------------------
Db|-----------------------9/7--------------------------
Ab|------9----------9-----9/7--------------------------
Eb|-10-7---10--7-10---10--7/5--------------------------

Solo:
Eb:----------------------------------------------------
Bb:-----12---------------------------------------------
Gb:-14~----14-12-11-12-11----11h12p11\7-7---7-7-7/9\---
Db:-----------------------14--------------9------------
Ab:----------------------------------------------------
Eb:----------------------------------------------------
 
Eb:-0-0-0--0--0--0-0-0-0-0-0-0-0-0-0--0-10/12\1/12-----
Bb:-5-7-8-10-12-10-8-7-8-7-5-4-5-7-8-10-10/12\1/12-----
Gb:----------------------------------------------------
Db:----------------------------------------------------
Ab:----------------------------------------------------
Eb:----------------------------------------------------

Eb:----------------------------------------------------
Bb:-----------------------------------15)~-------------
Gb:------12-14-14)p12----14)p12----12-14)~-------------
Db:-7/14--------------14--------14---------------------
Ab:----------------------------------------------------
Eb:----------------------------------------------------

Eb:----------------------------------------------------
Bb:----------------------------------------------------
Gb:-9/11/12/14/16\14\12/16-x-x-14-x-x-12-11-9-9--------
Db:----------------------------------------------------
Ab:-7/-9/10/12/14\12\-9/14-x-x-12-x-x-10--9-7----------
Eb:----------------------------------------------------

Eb:---------------------------------14h15p14----14-----
Bb:------------14h15p14----14-15-17----------17--------
Gb:-7-6----6-7----------16-----------------------------
Db:-----9----------------------------------------------
Ab:----------------------------------------------------
Eb:----------------------------------------------------

Eb:-15-17-19-19-19-19-19-19-19-19-19-19-19-19-19-19----
Bb:----------------------------------------------------
Gb:----------------------------------------------------
Db:----------------------------------------------------
Ab:----------------------------------------------------
Eb:----------------------------------------------------

Eb:-19-19-19-19-19-19-19p17p15-19-19p17p15----15h17----
Bb:----------------------------------------17----------
Gb:----------------------------------------------------
Db:----------------------------------------------------
Ab:----------------------------------------------------
Eb:----------------------------------------------------

Eb:-19p17p15h17----15h17-19-19p17p15----19p17p15-------
Bb:-------------17-------------------17----------17----
Gb:----------------------------------------------------
Db:----------------------------------------------------
Ab:----------------------------------------------------
Eb:----------------------------------------------------

Eb:-19p17p15----19p17p15----15-19p17p15\14-------------
Bb:----------17----------17----------------------------
Gb:----------------------------------------------------
Db:----------------------------------------------------
Ab:----------------------------------------------------
Eb:----------------------------------------------------

Eb:-17p15p14\12-15p14p12\10-14p12p10\9-12p10p9\7---7---
Bb:----------------------------------------------8---8-
Gb:----------------------------------------------------
Db:----------------------------------------------------
Ab:----------------------------------------------------
Eb:----------------------------------------------------

Eb:--------------------------------------22)-22)-22)---
Bb:----------------------------------------------------
Gb:----------------------------------------------------
Db:-4h5p4-------------4h5p4----------------------------
Ab:-------7-5-4\2-----------7-5-4\2--------------------
Eb:---------------5-3---------------5-3----------------

Eb:-22~-19-22-19h22p19----19----19----19----19----19---
Bb:--------------------22----22----22)---22)---22)-----
Gb:----------------------------------------------------
Db:----------------------------------------------------
Ab:----------------------------------------------------
Eb:----------------------------------------------------

Eb:----19-----19-22p19----19-22p19-22p19----19-22p19---
Bb:-22)---22)----------22----------------22------------
Gb:----------------------------------------------------
Db:----------------------------------------------------
Ab:----------------------------------------------------
Eb:----------------------------------------------------

Eb:-22p19----19-22p19----19-22p19-22p19-19-------------
Bb:-------22----------22-------------------22-22)p19---
Gb:----------------------------------------------------
Db:----------------------------------------------------
Ab:----------------------------------------------------
Eb:----------------------------------------------------

Eb:----------------------------------------------------
Bb:-22)-22p19------------------------------------------
Gb:-----------21-19----19-21)-21)-21)-21)-21)-21)-21)--
Db:-----------------21---------------------------------
Ab:----------------------------------------------------
Eb:----------------------------------------------------

Eb:----------------------------------------------------
Bb:----------------------------------------------------
Gb:-21)-21)-21)-19-------------------------------------
Db:----------------21~~~-------------------------------
Ab:----------------------------------------------------
Eb:----------------------------------------------------
            

comments powered by Disqus
↑ Back to top | Metallica Tabs for The God That Failed. Lyrics for acoustic guitar and electric guitar. Tablatures and chords are parodies/interpretations of the original songs. You may use it for private study, scholarship, research or language learning purposes only