» » »

Metallica, The Four Horsmen Bass tabs (ver.1)

Artists:  A B C D E F G H I J K L M N O P Q R S T U V W X Y Z # 

The Four Horsmen Bass tabs (ver.1)

Metallica Tabs
Rating:
0/5 (0 votes)
The Four Horsmen lessons Tabs too difficult? Try these video lessons and learn fast
                G----------------
D---------2------
A-3---5-2--------
E---3---------0-0 X2

G----------
D---------2
A-3---5-2--
E---3------

G--------------------------------------------------------------------------
D---------------------------------------------------------------5----------
A-----7-----7-----7-5-5-----7-----7-----7-3-5-----7-----7-----7---7-3---5-2
E-000---000---000-------000---000---000-------000---000---000---------3---- X3

G-------------------------------------------------2-0
D-22-22-22-22-00-00-00-00-----------------1-2-4-5----
A-------------------------33-33-33-33-2-3------------
E----------------------------------------------------

G--------------------------------------------
D-22-22-22-22-00-00-00-00--------------------
A-------------------------33-33-33-33-2-3-2-3
E--------------------------------------------

G------------------------------------------------------------
D-------------------------------------------------------7P5--
A-7P5-7P5-7P5-7P5-7P5-7P5-7P5-7P5---7P5-7P5-7P5---7P5-7-----7
E---------------------------------7-------------7------------

G------------------------------------
D------------------------------------
A-7P5-7P5-7P5---7P5-7P5-7P5---3---5-2
E-------------7-------------7---3----

G----------------------------------------------
D----------------------------------------------
A-7-----7-----7-----8/7-7--7-----7-----7-----88
E---000---000---000----------000---000---000---

G-9-7---7------------------9-7---7------------
D-----9---9-8-7-5-7---5-7------9---9-8-7------
A-------------------7--------------------3-4-5
E---------------------------------------------

G----------------------------
D-------5-7-5---5------------
A-----7-------7---------3-4-5
E-0-0-------------0-0-0------

G-------------------
D-------------------
A--------------3-4-5
E-000000000000------
            

comments powered by Disqus
↑ Back to top | Metallica Bass for The Four Horsmen. Lyrics for acoustic guitar and electric guitar. Tablatures and chords are parodies/interpretations of the original songs. You may use it for private study, scholarship, research or language learning purposes only