>
 >
The Call Of The Ktulu 2

The Call Of The Ktulu 2 Bass Tabs

Metallica - The Call Of The Ktulu 2 chords, tabs, tablatures, lyrics

Guitar lessons | Add/correct | Request | Top 50 tabs Artists:  A B C D E F G H I J K L M N O P Q R S T U V W X Y Z 0-9

The Call Of The Ktulu 2 Bass Tabs – Metallica

CD, Sheet music, Poster

Do you like The Call Of The Ktulu 2? Share with your friends now
Bass TabsBass Tabs v2Bass Tabs v3TabsTabs v2Tabs v3
listen to see when the bass start's
G:------------------------
D:------------------------  
A:-0------------7----6/---    x4
E:------------------------


G:------------------------
D:----0-------0--------0--  
A:------------------------
E:------------------------


G:------------------------------
D:------------------------------
A:-------5-5-5-5--5-5-5-5--5-5--
E:------------------------------



distortion
G:-----------------------------------------------9-9-9--------------------
D:-------7--5-5h7--------------------------------7-7-7---------------10---
A:-0--0-------------7-----6-6-6-6-7--7---0-0-0-0-0-0-0-7---6-6-6-6-6------  x2
E:------------------------------------------------------------------------


G:-----------------------------------------------------17--17---17/--
D:-0-0-0-0-0-0-0---12-12-15--17-----0-0-0-0-0-0-0-0--0-15--15---15/--
A:-------------------------------------------------------------------
E:-------------------------------------------------------------------


G:------------------------------------------------------------------------
D:-0-0-0-0-0-0-0---15-17-19--19--20-0-19-0-17-0-19-0-17-0-15-0-17-0-15-0--
A:------------------------------------------------------------------------
E:------------------------------------------------------------------------


G:-----------------------------------------
D:-14-0-15-0-14-0-12-0-14-0-12-0-10-0-9-0--
A:-----------------------------------------
E:-----------------------------------------


G:-----------------------------------------------------------------------------
D:-20-0-19-0-20-19-0-20-0-19-0-20-0-19-0-19-0-17-0-19-0-17-0-15-0-14-0-14-0-14-
A:-----------------------------------------------------------------------------
E:-----------------------------------------------------------------------------

G:----------------12-10-12--14-12-14-15-14-15-17/--
D:-12-14-15-14-15----------------------------------
A:-------------------------------------------------
E:-------------------------------------------------

G:--------------------------------------------------------
D:-19-17-19-17-19-17-19-17-15-0-15-0-15-0-15-0--15--17\---
A:--------------------------------------------------------
E:--------------------------------------------------------

distortion off
G:------------------------------------------------------------------
D:------------------------------------------------------------------  
A:---------0---2-3----------0-2-3-----------0---2-3--5-------3-2----    x3
E:-0-0-0-0---0------1-1-1-1---------2-2-2-2---0--------3-3-3-----3--


G:--------------------------------------------------------------------
D:--------------------------------------------------------------------
A:------------5-6-----------3-5-6-----------3----5-6---8-------6-5----
E:-3-3-3-3--3-------4-4-4-4---------5-5-5-5----5---------6-6-6-----6--


during solo
G:----------------------------------------------------
D:-------5-7---7---------------------------5-7---7----
A:-0-0-0---------7---6-6-6-6-6-7-7\9---------------7--
E:-----------------------------------5-5-5------------


G:------------------------------------------------------
D:-----------5-------------5-7---7----------------------
A:-6-6-6-6-6-7-7/---0-0--0---------7---6-6-6-6-6-7------
E:-------------------------------------------------8-7--


G:---------------------------------------------------------
D:---------7--------------------------0-0-0-0-12-12-12-12--
A:-0-0-0-0-0----7---6-6-6-6-6-7-7-7------------------------
E:---------------------------------------------------------

G:--------------------------
D:-12--12---12---12---------  
A:--------------------------  x8
E:--------------------------


G:--------------------------------------------------------------------------
D:-12-12-14-14-15-15-14-14--12-12-12-12-12-12-12-12-12-12-12-12-12-12-12-12-
A:--------------------------------------------------------------------------
E:--------------------------------------------------------------------------



G:------------------------------------------------------
D:-------5-7---7-----------------------------5-7---7----
A:-0-0-0---------7---6-6-6-6-6-7-7\9---0-0-0---------7--
E:------------------------------------------------------



G:------------------------------------------------------
D:-----------5-5/----------5-7---7----------------------
A:-6-6-6-6-6-7-7/---0-0--0---------7---6-6-6-6-6-7------
E:-------------------------------------------------8-7--


G:---------------------------------------------------------
D:---------7--------------------------0-0-0-0-12-12-12-12--
A:-0-0-0-0-0----7---6-6-6-6-6-7-7-7------------------------
E:---------------------------------------------------------


G:--------------------------
D:-12--12---12---12---------  
A:--------------------------  x8
E:--------------------------

G:--------------------------------------------------------------------------
D:-12-12-14-14-15-15-14-14--12-12-12-12-12-12-12-12-12-12-12-12-12-12-12-12-
A:--------------------------------------------------------------------------
E:--------------------------------------------------------------------------


now put distortion on
G:--------------------------------------------------------------------
D:-------5-7-5-7---------------------------5-7-5-7--------------5-5/--
A:-0-0-0---------7--6-6-6-6-6-7------0-0-0---------7--6-6-6-6-6-7-7/--
E:------------------------------8-7-----------------------------------



G:-----------------------------------------------------------------
D:-0-0-0-0-12-12-12-12--12-12-10h12p10h12p10h12p10h12p10h12p10h12--
A:-----------------------------------------------------------------
E:-----------------------------------------------------------------


G:---------------------------------------------------------------------------12--
D:----------12-12-12-12--12---14h15----15---0-0-0-0-12-12-12-12--14-14-15-15-----
A:5-5-5-5-5----------------------------------------------------------------------
E:-------------------------------------------------------------------------------


G:-5h7-14-5h7-14-5h7-15-5h7-15-5h7-15-5h7-16-5h7-16-5h7-16-5h7-17-5-17--
D:----------------------------------------------------------------------
A:----------------------------------------------------------------------
E:----------------------------------------------------------------------


G:---------------------------------
D:--------------------------------- 
A:-------------2-3------------2-3--  x4
E:-5-0-0-0-5-0------5-1-1-1-5------


G:---------------------------------
D:---------------0--------------0--
A:-2-------2---4----2-------2-4----  x4
E:---2-2-2---2--------3-3-3--------


G:---------------------------------
D:---------------------------------
A:-3-------3---5-6--3-------3-5-6--  x3
E:---3-3-3---3--------4-4-4--------

G:---------------------------------
D:---------------------------------
A:-5-------5---7-8--5-------5-7-8--  x3
E:---5-5-5---5--------6-6-6--------



distortion off
G:--------------
D:--------------
A:-0-----7--6/--  x7
E:--------------


G:-7-----7---------------------------
D:-----------------------------------
A:--------------5---------5----------
E:------------------------------0----


G:--------------------------------------------------
D:--------------------------------------------------  
A:-------------------7--7------------------------7--  x6
E:-3-2-2-2---3----0-----------3-2-2-2----3----0-----

G:--------------------------
D:--------------------------
A:--------------------5-5---
E:-0----0------2-2----------


G:-------------------------------------------------------------
D:-------------------------------------------------------------
A:---------------5--3--5--1---5--8--5-----5--3--5--1--5--8--5--
E:-------------------------------------------------------------


G:-----12/10\12\14/12\14\15/14\15\17/15\17\19--7\-----
D:-0--------------------------------------------------
A:----------------------------------------------------
E:----------------------------------------------------





Comments


Popular Metallica tabs & chords
Bleeding Me Bass Tabs
Helpless Bass Tabs
Orion Bass Tabs
Cure Drum Tabs
All Nightmare Long 2 Tabs
Fade To Black 4 Tabs
Frantic 3 Tabs
Holier Than Thou 1 Tabs
Invisible Kid Tabs
Until It Sleeps 4 Tabs


Song lyrics



↑ Back to top | Tablatures and chords are parodies/interpretations of the original songs. You may use it for private study, scholarship, research or language learning purposes only
© 2014 AZChords.com Contact us | Privacy policy | DMCA | Add/correct tabs | Request tabs | Top 50 tabs