» » »

Metallica, Call Of Ktulu Tabs (ver.3)

Artists:  A B C D E F G H I J K L M N O P Q R S T U V W X Y Z # 

Call Of Ktulu Tabs (ver.3)

Metallica Tabs
Rating:
0/5 (0 votes)
Call Of Ktulu lessons Tabs too difficult? Try these video lessons and learn fast
                E--------------5---------------------------------------5--------------
B-------------------------------6--------------5--------------6------
G-----------------------7--------------------------------------------- Play 2x
D-----0--------------------------------7-----------------------------
A---------------------------------------------------------------------
e----------------------------------------------------------------------

E--------------6---------------------------------------6--------------
B-------------------------------6----------------------------6--------
G-----------------------7----------------------9---------------------- Play 2x
D-----0--------------------------------8------------------------------
A----------------------------------------------------------------------
e-----------------------------------------------------------------------

E--------------8---------------------------------------8----------                                  
B-------------------------------8----------------------------8----         	     
G-----------------------9----------------------9------------------ Play 2x                     
D-----0--------------------------------10------------------------		     
A------------------------------------------------------------------		     
e-------------------------------------------------------------------		     

E--------------5---------------------------------------5-----------
B-------------------------------6----------------5-----------6-----                           
G-----------------------7------------------------------------------- Play 2x            
D-----0--------------------------------7---------------------------
A-------------------------------------------------------------------
e--------------------------------------------------------------------
							 
E---------------------------------0--------------------------|----------------------------------0-------------------------------  
B-------------------------0--------------0------------------|---------------------------0-------------0------------------------ 
G------------------5-----------------------------5----------|-------------------5----------------------------5-----------------Play 4x
D-----------7-----------------------------------------------|-------------7------------------------------------------7---------
A----0--------------------------------------------------7--|------6------------------------------------------------------------
e------------------------------------------------------------|--------------------------------------------------------------------

E-----------------------------1------------------1----------|-----------------------------1----------------------5-------------
B---------------------3-------------------3-----------------|--------------------3-----------------------3--------------------- 
G------------2---------------------3------------------------|------------4------------------------5----------------------------Play 4x
D----0----------------------0-------------------------------|----0------------------------0------------------------------------
A------------------------------------------------------------|-------------------------------------------------------------------
e-------------------------------------------------------------|-------------------------------------------------------------------
            

comments powered by Disqus
↑ Back to top | Metallica Tabs for Call Of Ktulu. Lyrics for acoustic guitar and electric guitar. Tablatures and chords are parodies/interpretations of the original songs. You may use it for private study, scholarship, research or language learning purposes only