>
 >
Sweet Amber 1

Sweet Amber 1 Guitar Tabs

Metallica - Sweet Amber 1 chords, tabs, tablatures, lyrics

Guitar lessons | Add/correct | Request | Top 50 tabs Artists:  A B C D E F G H I J K L M N O P Q R S T U V W X Y Z 0-9

Sweet Amber 1 Guitar Tabs – Metallica

CD, Sheet music, Poster

Do you like Sweet Amber 1? Share with your friends now
TabsTabs v2Tabs v3

Drop C Tuning (CGCFAD)
Bend = b

D |--------------------------------------------------------------------------|
A |---------6b---------6b---------6b-----------------------------------------|
F |-5-7-5h7----5-7-5h7----5-7-5h7----5-7-5h7---------------------------------|
C |--------------------------------------------------------------------------|
G |-----------------------------------------x-xx-x---------------------------|
C |-----------------------------------------x-xx-x---------------------------|

D |--------------------------------------------------------------------------|
A |--------------------------------------------------------------------------|
F |--------------------------------------------------------------------------|
C |---------3b---------3b---------3b-----------------------------------------|
G |-3-5-3h5----3-5-3h5----3-5-3h5----3-5-00-00-00-00-00----------------------|
C |-0-0--------0-0--------0-0--------0—0-00-00-00-00-00----------------------|

D |--------------------------------------------------------------------------|
A |--------------------------------------------------------------------------|
F |--------------------------------------------------------------------------|
C |--------------------------------------------------------------------------|
G |-0---3-7-6--0-0-0-0-0-333-2-----------------------------------------------|
C |-0---3-7-6--0-0-0-0-0-333-2-----------------------------------------------|

D |--------------------------------------------------------------------------|
A |--------------------------------------------------------------------------|
F |--------------------------------------------------------------------------|
C |--------------------------------------------------------------------------|
G |-3--7-6--2----------------------------------------------------------------|
C |-3--7-6--2----------------------------------------------------------------|

D |--------------------------------------------------------------------------|
A |--------------------------------------------------------------------------|
F |--------------------------------------------------------------------------|
C |--------------------------------------------------------------------------|
G |-0-0-0-3-5-0-0-0--0-0-0-3-5-0-0-0--0-0-0-3-5-0-0-0--0-0-0-3-5-0-0-0-------|
C |-0-0-0-3-5-0-0-0--0-0-0-3-5-0-0-0--0-0-0-3-5-0-0-0--0-0-0-3-5-0-0-0-------|

D |--------------------------------------------------------------------------|
A |--------------------------------------------------------------------------|
F |-7----7----7----10-7-9----9----9----10-9----------------------------------|
C |-00000000000000000000000000000000000x--x----------------------------------|
G |------------------------------------8--7----------------------------------|
C |--------------------------------------------------------------------------|

D |--------------------------------------------------------------------------|
A |--------------------------------------------------------------------------|
F |--------------------------------------------------------------------------|
C |--------------------------------------------------------------------------|
G |-3-2-0-3-2-1-0------------------------------------------------------------|
C |-3-2-0-3-2-1-0------------------------------------------------------------|





Comments


Popular Metallica tabs & chords
Astronomy Chords
Frantic Chords
53rd And 3rd Tabs
Frayed 1 Tabs
Hero Of The Day 4 Tabs
Mama Said Tabs
Nothing Else Matters 1 Tabs
Outlaw Tom Tabs
So What?! Tabs
The Struggle Within 1 Tabs


Song lyrics



↑ Back to top | Tablatures and chords are parodies/interpretations of the original songs. You may use it for private study, scholarship, research or language learning purposes only
© 2014 AZChords.com Contact us | Privacy policy | DMCA | Add/correct tabs | Request tabs | Top 50 tabs