>
 >
So What?!

So What?! Guitar Tabs

Metallica - So What?! chords, tabs, tablatures, lyrics

Guitar lessons | Add/correct | Request | Top 50 tabs Artists:  A B C D E F G H I J K L M N O P Q R S T U V W X Y Z 0-9

So What?! Guitar Tabs – Metallica

CD, Sheet music, Poster

Do you like So What?!? Share with your friends now
ChordsTabsTabs v2Tabs v3
Words:          Cris Exall, Clive Harvey Blake, Nick John Culmer and Aghssa Djahanshah
Music:          Cris Exall, Clive Harvey Blake, Nick John Culmer and Aghssa Djahanshah         
Tempo:          Fast Rock, 189
                (check for more quality tabs, and scanned tabs)
Last edit:      03-Dec-2001
Parts:          Just play everything 'downstairs'
Missing:        Nothing
Other tabs 	
made by me:     Metallica - Enter Sandman
                Metallica - For Whom The Bell Tolls
                Metallica - Motorbreath
                Metallica - Orion
                Metallica - The Unforgiven
                Metallica - Wiskey In The Jar

Cool Song....Nothing special but "who cares"

If you want to add this tab on your site then please leave the tab as it is. If you are not sure
that you have the orginal tab mail me. Also, if somebody is using my tab then please mail me.

If you see any white lines between the guitar lines, then make sure you resolution is 
1024 x 768 or greater and that you are using Notepad.

Well, let's play this song.


 4/4
  Gtr I
  H    Q  E E   Q  E E E E E E   Q  E E E E E E
|-------------|----------------|----------------|
|-------------|----------------|----------------|
|-------------|----------------|----------------|
|---------5S7-|-7--7-7-7---5S7-|-7--7-7-7---5S7-|
|---------5S7-|-7--7-7-7---5-5-|-7--7-7-7---5-5-|
|---------3S5-|-5--5-5-5-0-3S5-|-5--5-5-5-0-3S5-|


  Gtr I
  E E E E E E E E   Q  E E E E E E   Q  E E E E E E
|-----------------|----------------|----------------|
|-----------------|----------------|----------------|
|-----------------|----------------|----------------|
|-7---5S7-7---5S7-|-7--7-7-7---5S7-|-7--7-7-7---5S7-|
|-7---5S7-7---5S7-|-7--7-7-7---5-5-|-7--7-7-7---5-5-|
|-5-0-3S5-5-0-3S5-|-5--5-5-5-0-3S5-|-5--5-5-5-0-3S5-|
|
|
| Gtr II            (pick slides)
| W                 H    H           W
|-----------------|----------------|----------------|
|-----------------|----------------|----------------|
|-----------------|----------------|----------------|
|-----------------|----------------|----------------|
|-----------------|----------------|----------------|
|-----------------|-x----x---------|----------------|


  Gtr I
  Q  E E E E E E   E E E E E E E E   Q  E E Q  E E
|----------------|-----------------|---------------|
|----------------|-----------------|---------------|
|----------------|-----------------|---------------|
|-7--7-7-7---5S7-|-7---5S7-7---5S7-|-7--7-7-7--7-7-|
|-7--7-7-7---5-5-|-7---5S7-7---5S7-|-7--7-7-7--7-7-|
|-5--5-5-5-0-3S5-|-5-0-3S5-5-0-3S5-|-5--5-5-5--5-5-|


  Gtr I
     PM--------------------------------------------|
  Q  E E E E E E   E E E E E E E E   E E E E E E E E
|----------------|-----------------|-----------------|
|----------------|-----------------|-----------------|
|-7--7-7-7-7-7-7-|-7-7-7-7-7-7-7-7-|-7-7-7-7-7-7-7-7-|
|-7--7-7-7-7-7-7-|-7-7-7-7-7-7-7-7-|-7-7-7-7-7-7-7-7-|
|-5--5-5-5-5-5-5-|-5-5-5-5-5-5-5-5-|-5-5-5-5-5-5-5-5-|
|----------------|-----------------|-----------------|


  Gtr I
  E E E E E E E E   Q  E E E E E E   Q  E E E E E E
|-----------------|----------------|----------------|
|-----------------|----------------|----------------|
|-7-7-7-7-7-------|----------------|----------------|
|-7-7-7-7-7---5S7-|-7--7-7-7---5S7-|-7--7-7-7---5S7-|
|-5-5-5-5-5---5S7-|-7--7-7-7---5-5-|-7--7-7-7---5-5-|
|-----------0-3S5-|-5--5-5-5-0-3S5-|-5--5-5-5-0-3S5-|


  Gtr I
                                       PM--------|
  E E E E E E E E   Q  E E Q  E E   Q  E E E E E E
|-----------------|---------------|----------------|
|-----------------|---------------|----------------|
|-----------------|---------------|-7--7-7-7-7-7-7-|
|-7---5S7-7---5S7-|-7--7-7-7--7-7-|-7--7-7-7-7-7-7-|
|-7---5S7-7---5S7-|-7--7-7-7--7-7-|-5--5-5-5-5-5-5-|
|-5-0-3S5-5-0-3S5-|-5--5-5-5--5-5-|----------------|


  Gtr I
  PM------------------------------|
  E E E E E E E E   E E E E E E E E   E E E E E E E E
|-----------------|-----------------|-----------------|
|-----------------|-----------------|-----------------|
|-7-7-7-7-7-7-7-7-|-7-7-7-7-7-7-7-7-|-7-7-7-7-7-------|
|-7-7-7-7-7-7-7-7-|-7-7-7-7-7-7-7-7-|-7-7-7-7-7---5S7-|
|-5-5-5-5-5-5-5-5-|-5-5-5-5-5-5-5-5-|-5-5-5-5-5---5S7-|
|-----------------|-----------------|-----------0-3S5-|


  Gtr I
  Q  E E E E E E   Q  E E E E E E   E E E E E E E E
|----------------|----------------|-----------------|
|----------------|----------------|-----------------|
|----------------|----------------|-----------------|
|-7--7-7-7---5S7-|-7--7-7-7---5S7-|-7---5S7-7---5S7-|
|-7--7-7-7---5-5-|-7--7-7-7---5-5-|-7---5S7-7---5S7-|
|-5--5-5-5-0-3S5-|-5--5-5-5-0-3S5-|-5-0-3S5-5-0-3S5-|


  Gtr I
  Q  E E Q  Q    H.      Q    E E E E +E  E E E
|--------------|------------|-------------------|
|--------------|------------|-------------------|
|--------------|------------|-------------------|
|-7--7-7-7--7S=|=3-------3S=|=8-8-8-8-(8)-8-8-8-|
|-7--7-7-7--7S=|=3-------3S=|=8-8-8-8-(8)-8-8-8-|
|-5--5-5-5--5S=|=1-------1S=|=6-6-6-6-(6)-6-6-6-|


  Gtr I
  E E E E e E E E   Q  E E Q  Q    H.      Q
|-----------------|--------------|------------|
|-----------------|--------------|------------|
|-----------------|--------------|------------|
|-7-7-7-7-7---5S7-|-7--7-7-7--7S=|=3-------3S=|
|-7-7-7-7-7---5S7-|-7--7-7-7--7S=|=3-------3S=|
|-5-5-5-5-5-0-3S5-|-5--5-5-5--5S=|=1-------1S=|


  Gtr I
  E E E E +E  E E E   Q  E E E E E E   Q  E E E E E E
|-------------------|----------------|----------------|
|-------------------|----------------|----------------|
|-------------------|----------------|----------------|
|-8-8-8-8-(8)-8-8-8-|-7--7-7-7---5S7-|-7--7-7-7---5S7-|
|-8-8-8-8-(8)-8-8-8-|-7--7-7-7---5-5-|-7--7-7-7---5-5-|
|-6-6-6-6-(6)-6-6-6-|-5--5-5-5-0-3S5-|-5--5-5-5-0-3S5-|


  Gtr I
  E E E E E E E E   Q  E E Q  E E
|-----------------|---------------|
|-----------------|---------------|
|-----------------|---------------|
|-7---5S7-7---5S7-|-7--7-7-7--7-7-|
|-7---5S7-7---5S7-|-7--7-7-7--7-7-|
|-5-0-3S5-5-0-3S5-|-5--5-5-5--5-5-|




  Gtr I
     PM--------------------------------------------|
  Q  E E E E E E   E E E E E E E E   E E E E E E E E
|----------------|-----------------|-----------------|
|----------------|-----------------|-----------------|
|-7--7-7-7-7-7-7-|-7-7-7-7-7-7-7-7-|-7-7-7-7-7-7-7-7-|
|-7--7-7-7-7-7-7-|-7-7-7-7-7-7-7-7-|-7-7-7-7-7-7-7-7-|
|-5--5-5-5-5-5-5-|-5-5-5-5-5-5-5-5-|-5-5-5-5-5-5-5-5-|
|----------------|-----------------|-----------------|


  Gtr I
  E E E E E E E E   Q  E E E E E E   Q  E E E E E E
|-----------------|----------------|----------------|
|-----------------|----------------|----------------|
|-7-7-7-7-7-------|----------------|----------------|
|-7-7-7-7-7---5S7-|-7--7-7-7---5S7-|-7--7-7-7---5S7-|
|-5-5-5-5-5---5S7-|-7--7-7-7---5-5-|-7--7-7-7---5-5-|
|-----------0-3S5-|-5--5-5-5-0-3S5-|-5--5-5-5-0-3S5-|


  Gtr I
                                       PM--------|
  E E E E E E E E   Q  E E Q  E E   Q  E E E E E E
|-----------------|---------------|----------------|
|-----------------|---------------|----------------|
|-----------------|---------------|-7--7-7-7-7-7-7-|
|-7---5S7-7---5S7-|-7--7-7-7--7-7-|-7--7-7-7-7-7-7-|
|-7---5S7-7---5S7-|-7--7-7-7--7-7-|-5--5-5-5-5-5-5-|
|-5-0-3S5-5-0-3S5-|-5--5-5-5--5-5-|----------------|


  Gtr I
  PM------------|                                PM
  E E E E E E E E   E E E E E E E E      +E  S S E E E E Q
|-----------------|--------------------|--------------------|
|-----------------|---------------7b8==|=(7)-----------5-0--|
|-7-7-7-7-7-7-7-7-|-7-7-7-7-7-7---7b8==|=(7)r7p5---7---5-0--|
|-7-7-7-7-7-7-7-7-|-7-7-7-7-7-7-0------|---------7---5---0--|
|-5-5-5-5-5-5-5-5-|-5-5-5-5-5-5-0------|---------5---5------|
|-----------------|--------------------|--------------------|


  Gtr I
  Q  E E E E E E   Q  E E E E E E   E E E E E E E E
|----------------|----------------|-----------------|
|----------------|----------------|-----------------|
|----------------|----------------|-----------------|
|-7--7-7-7---5S7-|-7--7-7-7---5S7-|-7---5S7-7---5S7-|
|-7--7-7-7---5-5-|-7--7-7-7---5-5-|-7---5S7-7---5S7-|
|-5--5-5-5-0-3S5-|-5--5-5-5-0-3S5-|-5-0-3S5-5-0-3S5-|


  Gtr I
  Q  E E Q  Q    H.      Q    E E E E +E  E E E
|--------------|------------|-------------------|
|--------------|------------|-------------------|
|--------------|------------|-------------------|
|-7--7-7-7--7S=|=3-------3S=|=8-8-8-8-(8)-8-8-8-|
|-7--7-7-7--7S=|=3-------3S=|=8-8-8-8-(8)-8-8-8-|
|-5--5-5-5--5S=|=1-------1S=|=6-6-6-6-(6)-6-6-6-|


  Gtr I
  E E E E e E E E   Q  E E Q  Q    H.      Q
|-----------------|--------------|------------|
|-----------------|--------------|------------|
|-----------------|--------------|------------|
|-7-7-7-7-7---5S7-|-7--7-7-7--7S=|=3-------3S=|
|-7-7-7-7-7---5S7-|-7--7-7-7--7S=|=3-------3S=|
|-5-5-5-5-5-0-3S5-|-5--5-5-5--5S=|=1-------1S=|


  Gtr I
  E E E E +E  E E E   Q  E E E E E E   Q  E E E E E E
|-------------------|----------------|----------------|
|-------------------|----------------|----------------|
|-------------------|----------------|----------------|
|-8-8-8-8-(8)-8-8-8-|-7--7-7-7---5S7-|-7--7-7-7---5S7-|
|-8-8-8-8-(8)-8-8-8-|-7--7-7-7---5-5-|-7--7-7-7---5-5-|
|-6-6-6-6-(6)-6-6-6-|-5--5-5-5-0-3S5-|-5--5-5-5-0-3S5-|


  Gtr I
  E E E E E E E E   Q  E E Q  E E
|-----------------|---------------|
|-----------------|---------------|
|-----------------|---------------|
|-7---5S7-7---5S7-|-7--7-7-7--7-7-|
|-7---5S7-7---5S7-|-7--7-7-7--7-7-|
|-5-0-3S5-5-0-3S5-|-5--5-5-5--5-5-|




  Gtr I
     PM--------------------------------------------|
  Q  E E E E E E   E E E E E E E E   E E E E E E E E
|----------------|-----------------|-----------------|
|----------------|-----------------|-----------------|
|-7--7-7-7-7-7-7-|-7-7-7-7-7-7-7-7-|-7-7-7-7-7-7-7-7-|
|-7--7-7-7-7-7-7-|-7-7-7-7-7-7-7-7-|-7-7-7-7-7-7-7-7-|
|-5--5-5-5-5-5-5-|-5-5-5-5-5-5-5-5-|-5-5-5-5-5-5-5-5-|
|----------------|-----------------|-----------------|


  E E E E E E E E   Q  E E E E E E   Q  E E E E E E
|-----------------|----------------|----------------|
|-----------------|----------------|----------------|
|-7-7-7-7-7-------|----------------|----------------|
|-7-7-7-7-7---5S7-|-7--7-7-7---5S7-|-7--7-7-7---5S7-|
|-5-5-5-5-5---5S7-|-7--7-7-7---5-5-|-7--7-7-7---5-5-|
|-----------0-3S5-|-5--5-5-5-0-3S5-|-5--5-5-5-0-3S5-|


                                       PM--------|
  E E E E E E E E   Q  E E Q  E E   Q  E E E E E E
|-----------------|---------------|----------------|
|-----------------|---------------|----------------|
|-----------------|---------------|-7--7-7-7-7-7-7-|
|-7---5S7-7---5S7-|-7--7-7-7--7-7-|-7--7-7-7-7-7-7-|
|-7---5S7-7---5S7-|-7--7-7-7--7-7-|-5--5-5-5-5-5-5-|
|-5-0-3S5-5-0-3S5-|-5--5-5-5--5-5-|----------------|


  PM----------------------|           PM   PM
  E E E E E E E E   E E E E E E E E   E Q  E E E E E
|-----------------|-----------------|----------------|
|-----------------|---------7-7-7-7-|----------------|
|-7-7-7-7-7-7-7-7-|-7-7-7-7-7-7-7-7-|---5----5-------|
|-7-7-7-7-7-7-7-7-|-7-7-7-7-7-7-7-7-|---5----5-5-5S7-|
|-5-5-5-5-5-5-5-5-|-5-5-5-5-5-5-5-5-|-7----7-----5S7-|
|-----------------|-----------------|------------3S5-|


  Q  E E E E E E   Q  E E E E E E   E E E E E E E E
|----------------|----------------|-----------------|
|----------------|----------------|-----------------|
|----------------|----------------|-----------------|
|-7--7-7-7---5S7-|-7--7-7-7---5S7-|-7---5S7-7---5S7-|
|-7--7-7-7---5-5-|-7--7-7-7---5-5-|-7---5S7-7---5S7-|
|-5--5-5-5-0-3S5-|-5--5-5-5-0-3S5-|-5-0-3S5-5-0-3S5-|


  Q  E E Q  Q    H.      Q    E E E E +E  E E E
|--------------|------------|-------------------|
|--------------|------------|-------------------|
|--------------|------------|-------------------|
|-7--7-7-7--7S=|=3-------3S=|=8-8-8-8-(8)-8-8-8-|
|-7--7-7-7--7S=|=3-------3S=|=8-8-8-8-(8)-8-8-8-|
|-5--5-5-5--5S=|=1-------1S=|=6-6-6-6-(6)-6-6-6-|


  E E E E e E E E   Q  E E Q  Q    H.      Q
|-----------------|--------------|------------|
|-----------------|--------------|------------|
|-----------------|--------------|------------|
|-7-7-7-7-7---5S7-|-7--7-7-7--7S=|=3-------3S=|
|-7-7-7-7-7---5S7-|-7--7-7-7--7S=|=3-------3S=|
|-5-5-5-5-5-0-3S5-|-5--5-5-5--5S=|=1-------1S=|


  E E E E +E  E E E   Q  E E E E E E   Q  E E E E E E
|-------------------|----------------|----------------|
|-------------------|----------------|----------------|
|-------------------|----------------|----------------|
|-8-8-8-8-(8)-8-8-8-|-7--7-7-7---5S7-|-7--7-7-7---5S7-|
|-8-8-8-8-(8)-8-8-8-|-7--7-7-7---5-5-|-7--7-7-7---5-5-|
|-6-6-6-6-(6)-6-6-6-|-5--5-5-5-0-3S5-|-5--5-5-5-0-3S5-|


  E E E E E E E E   Q  E E Q  E E
|-----------------|-----------------|
|-----------------|-----------------|
|-----------------|-----------------|
|-7---5S7-7---5S7-|-7--7-7-7--7-7---|
|-7---5S7-7---5S7-|-7--7-7-7--7-7---|
|-5-0-3S5-5-0-3S5-|-5--5-5-5--5-5---|
|
|
| Gtr II
|                         TP
| W                 Q  E  H     +E
|-----------------|------27----(27)-|
|-----------------|-----------------|
|-----------------|-----------------|
|-----------------|-----------------|
|-----------------|-----------------|
|-----------------|-----------------|


  Gtr I
     PM-------------------------------------------------------------|
  Q  E E E E E E            E E E E E E E E           E E E E E E E E
|-------------------------|-------------------------|----------------------------|
|-------------------------|-------------------------|----------------------------|
|-7--7-7-7-7-7-7----------|-7-7-7-7-7-7-7-7---------|-7-7-7-7-7-7-7-7------------|
|-7--7-7-7-7-7-7----------|-7-7-7-7-7-7-7-7---------|-7-7-7-7-7-7-7-7------------|
|-5--5-5-5-5-5-5----------|-5-5-5-5-5-5-5-5---------|-5-5-5-5-5-5-5-5------------|
|-------------------------|-------------------------|----------------------------|
|
|
| Gtr II
|  Q      E  E  E  E  E E    E  E  E  E  E  E  E  E    Q      Q   Q      E  E
|-10-----10-10-10-10-10-7S|=10-10-10-10-10-10-10-10-|--------10---------10-------|
|-10-----10-10-10-10-10-7S|=10-10-10-10-10-10-10-10-|-13b15--10--13b15--10-10----|
|-12b14-------------------|-------------------------|-12b14------12b14-----12b14-|
|-------------------------|-------------------------|----------------------------|
|-------------------------|-------------------------|----------------------------|
|-------------------------|-------------------------|----------------------------|


  Gtr I
  E E E E E E E E                       Q  E E E E E E            Q  E E E E E E
|-------------------------------------|-------------------------|--------------------------|
|-------------------------------------|-------------------------|--------------------------|
|-7-7-7-7-7---------------------------|-------------------------|--------------------------|
|-7-7-7-7-7---5S7---------------------|-7--7-7-7---5S7----------|-7--7-7-7---5S7-----------|
|-5-5-5-5-5---5S7---------------------|-7--7-7-7---5-5----------|-7--7-7-7---5-5-----------|
|-----------0-3S5---------------------|-5--5-5-5-0-3S5----------|-5--5-5-5-0-3S5-----------|
|
|
| Gtr II
|  +E   E  E     E  E     E  E      E   E   +S  S E E E E E E     +Q   E   +E  E   +E  E E
|------10-------10-------10-----------|-------------------------|--------------------------|
|-(10)-10-10----10-10----10-----------|---------------5-7-7-7b8-|-(7)--7b8r(7)-7b8r(7)-5---|
|-(12)----12b14----12b14----12pb13==4-|-7b9r(7)p5-5---5-7-7-7b9-|-(7)--7b9r(7)-7b9r(7)-5---|
|-------------------------------------|-------------7-----------|------------------------7-|
|-------------------------------------|-------------------------|--------------------------|
|-------------------------------------|-------------------------|--------------------------|


  Gtr I
                                                 PM--------|
  E E E E E E E E       Q  E E Q  E E         Q  E E E E E E
|---------------------|---------------------|--------------------------|
|---------------------|---------------------|--------------------------|
|---------------------|---------------------|-7--7-7-7-7-7-7-----------|
|-7---5S7-7---5S7-----|-7--7-7-7--7-7-------|-7--7-7-7-7-7-7-----------|
|-7---5S7-7---5S7-----|-7--7-7-7--7-7-------|-5--5-5-5-5-5-5-----------|
|-5-0-3S5-5-0-3S5-----|-5--5-5-5--5-5-------|--------------------------|
|
|
| Gtr II
|                             ~~~~~~
| E E   +E  E E E E E   E E E E +E  +E  E E     E  E  E  E  E  E  E  E
|---------------------|---------------------|-/10-10-10-10-10-10-10-10-|
|---7b8---------5-7p5-|-----7-5-(5)-(5)-----|-/10-10-10-10-10-10-10-10-|
|-5-7b9-(7)p5---5-7p5-|---5-7-5-(5)-(5)S3S8-|--------------------------|
|-------------7-------|-7-------------------|--------------------------|
|---------------------|---------------------|--------------------------|
|---------------------|---------------------|--------------------------|


  Gtr I
  PM--------------------------------------------|
  E E E E E E E E                 E E E E E E E E                    E E E E E E E E
|-------------------------------|----------------------------------|--------------------------------|
|-------------------------------|----------------------------------|--------------------------------|
|-7-7-7-7-7-7-7-7---------------|-7-7-7-7-7-7-7-7------------------|-7-7-7-7-7----------------------|
|-7-7-7-7-7-7-7-7---------------|-7-7-7-7-7-7-7-7------------------|-7-7-7-7-7---5S7----------------|
|-5-5-5-5-5-5-5-5---------------|-5-5-5-5-5-5-5-5------------------|-5-5-5-5-5---5S7----------------|
|-------------------------------|----------------------------------|-----------0-3S5----------------|
|
|
| Gtr II                                                                                    ~~
|  S  S  E  E  E  E  E     E  E    S  S  E  E  E  S  S  S  S  E  E    E  E  S      +E.  E  E  +Q
|-------------------------10-10-|----------------------------------|--------------------------------|
|-13p10-------------------10-10-|-13p10----10-13-10h13p10----------|--------------------------------|
|-------12-10----10-12b13-------|-------12----------------12-10----|-10-12-12pb14r(12)-10-----------|
|-------------12----------------|-------------------------------12-|----------------------12-(12)\--|
|-------------------------------|----------------------------------|--------------------------------|
|-------------------------------|----------------------------------|--------------------------------|


  Gtr I
  Q  E E E E E E        Q  E E E E E E     E E E E E E E E
|---------------------|------------------|-----------------------|
|---------------------|------------------|-----------------------|
|---------------------|------------------|-----------------------|
|-7--7-7-7---5S7------|-7--7-7-7---5S7---|-7---5S7-7---5S7-------|
|-7--7-7-7---5-5------|-7--7-7-7---5-5---|-7---5S7-7---5S7-------|
|-5--5-5-5-0-3S5------|-5--5-5-5-0-3S5---|-5-0-3S5-5-0-3S5-------|
|
|
| Gtr II
|                ~~           ~~~~~~
| Q  +E  +S  S E Q.     E E E E +Q   E E   E E E E   +E  E S S E
|---------------------|------------------|---------------5-------|
|---------------------|-5----------------|-5---------------8p5---|
|-7--(7)-(7)p5-5------|-5----------------|-5---5-7b8-(7)-------7-|
|----------------7----|---7-5-7-(7)--7-7-|---7-------------------|
|---------------------|------------------|-----------------------|
|---------------------|------------------|-----------------------|


  Gtr I
  H    H (pick slides)    H.      Q                         E E E E +E  E E E
|-----------------------|---------------------------------|------------------------------------|
|-----------------------|---------------------------------|------------------------------------|
|-----------------------|---------------------------------|------------------------------------|
|-----------------------|-3-------3S======================|=8-8-8-8-(8)-8-8-8------------------|
|-----------------------|-3-------3S======================|=8-8-8-8-(8)-8-8-8------------------|
|-x----x----------------|-1-------1S======================|=6-6-6-6-(6)-6-6-6------------------|
|
|
| Gtr II
|                                         ~~~~~~~                            ~~~~~~~
| E E E E +E  +E   E  E    E      +E   E  E  +E   E  E  E    E      +E   E  E  +E   E  E  S  S
|-----------------------|---------------------------------|---------------------------17-20p17-|
|-----------------------|---------------------------------|----------------20-(20)-20----------|
|-5---5--------------17-|-19pb21r(19)-17------------17-19-|-19pb21r(19)-17---------------------|
|---7---7-(7)-(7)S19----|----------------19-(19)-19-------|------------------------------------|
|-----------------------|---------------------------------|------------------------------------|
|-----------------------|---------------------------------|------------------------------------|


  Gtr I
  E E E E e E E E                  Q  E E Q  Q                  H.      Q
|--------------------------------|----------------------------|--------------------------------|
|--------------------------------|----------------------------|--------------------------------|
|--------------------------------|----------------------------|--------------------------------|
|-7-7-7-7-7---5S7----------------|-7--7-7-7--7S===============|=3-------3S=====================|
|-7-7-7-7-7---5S7----------------|-7--7-7-7--7S===============|=3-------3S=====================|
|-5-5-5-5-5-0-3S5----------------|-5--5-5-5--5S===============|=1-------1S=====================|
|
|
| Gtr II
|                                                       ~~~~                    ~~~~~~~
|  S  S  E  E  E  E  E  E  E        +E   E  E  +E      +H        E     +E   E  E  +E   E  E  E
|-20p17--------------------------|----------------------------|--------------------------------|
|-------20-17--------------------|------20--------------------|--------------------------------|
|-------------19-17----17-19b21==|=(19)----19r(19)b21-(19)----|-19b21r(19)-17------------17-19-|
|-------------------19-----------|----------------------------|---------------19-(19)-19-------|
|--------------------------------|----------------------------|--------------------------------|
|--------------------------------|----------------------------|--------------------------------|


  Gtr I
  E E E E +E  E E E                 Q  E E E E E E           Q  E E E E E E
|---------------------------------|------------------------|------------------------|
|---------------------------------|------------------------|------------------------|
|---------------------------------|------------------------|------------------------|
|-8-8-8-8-(8)-8-8-8---------------|-7--7-7-7---5S7---------|-7--7-7-7---5S7---------|
|-8-8-8-8-(8)-8-8-8---------------|-7--7-7-7---5-5---------|-7--7-7-7---5-5---------|
|-6-6-6-6-(6)-6-6-6---------------|-5--5-5-5-0-3S5---------|-5--5-5-5-0-3S5---------|
|
|
| Gtr II
|                 ~~~~~~~
|  E      +E   E  E  +E   E  E  E     Q      Q.      Q.        Q.      Q.      Q
|---------------------------------|------------------------|------------------------|
|----------------20-(20)-20-17----|--------19b20---19b20---|-19b20---19b20---19b20--|
|-19pb21r(19)-17---------------19-|-19b21--19b21---19b21---|-19b21---19b21---19b21--|
|---------------------------------|------------------------|------------------------|
|---------------------------------|------------------------|------------------------|
|---------------------------------|------------------------|------------------------|


  Gtr I
  E E E E E E E E           Q  E E Q  E E
|-------------------------|-------------------------------|
|-------------------------|-------------------------------|
|-------------------------|-------------------------------|
|-7---5S7-7---5S7---------|-7--7-7-7--7-7-----------------|
|-7---5S7-7---5S7---------|-7--7-7-7--7-7-----------------|
|-5-0-3S5-5-0-3S5---------|-5--5-5-5--5-5-----------------|
|
|
| Gtr II
|  E  E  E  E  E  E  E  E    S  S  E  E  E  a  Q.    +E
|-------------------------|-------------------------------|
|-------------17----17----|-------------------------------|
|-17----------17----17-19-|-20p17----17-------------------|
|----19-17-19----19-------|-------19----19-17h19----(19)\-|
|-------------------------|-------------------------------|
|-------------------------|-------------------------------|



  Gtr I
     PM--------------------------------------------|
  Q  E E E E E E   E E E E E E E E   E E E E E E E E
|----------------|-----------------|-----------------|
|----------------|-----------------|-----------------|
|-7--7-7-7-7-7-7-|-7-7-7-7-7-7-7-7-|-7-7-7-7-7-7-7-7-|
|-7--7-7-7-7-7-7-|-7-7-7-7-7-7-7-7-|-7-7-7-7-7-7-7-7-|
|-5--5-5-5-5-5-5-|-5-5-5-5-5-5-5-5-|-5-5-5-5-5-5-5-5-|
|----------------|-----------------|-----------------|


  Gtr I
  E E E E E E E E   Q  E E E E E E   Q  E E E E E E
|-----------------|----------------|----------------|
|-----------------|----------------|----------------|
|-7-7-7-7-7-------|----------------|----------------|
|-7-7-7-7-7---5S7-|-7--7-7-7---5S7-|-7--7-7-7---5S7-|
|-5-5-5-5-5---5S7-|-7--7-7-7---5-5-|-7--7-7-7---5-5-|
|-----------0-3S5-|-5--5-5-5-0-3S5-|-5--5-5-5-0-3S5-|


  Gtr I
                                       PM--------|
  E E E E E E E E   Q  E E Q  E E   Q  E E E E E E
|-----------------|---------------|----------------|
|-----------------|---------------|----------------|
|-----------------|---------------|-7--7-7-7-7-7-7-|
|-7---5S7-7---5S7-|-7--7-7-7--7-7-|-7--7-7-7-7-7-7-|
|-7---5S7-7---5S7-|-7--7-7-7--7-7-|-5--5-5-5-5-5-5-|
|-5-0-3S5-5-0-3S5-|-5--5-5-5--5-5-|----------------|


  Gtr I
  PM------------------------------|
  E E E E E E E E   E E E E E E E E   E E E E   +Q    E E
|-----------------|-----------------|---------------------|
|-----------------|-----------------|-------7b8-(7)\------|
|-7-7-7-7-7-7-7-7-|-7-7-7-7-7-7-7-7-|-5-7-5-7b9-(7)\------|
|-7-7-7-7-7-7-7-7-|-7-7-7-7-7-7-7-7-|-5-7-5-----------5S7-|
|-5-5-5-5-5-5-5-5-|-5-5-5-5-5-5-5-5-|-----------------5S7-|
|-----------------|-----------------|-----------------3S5-|


  Gtr I
  Q  E E E E E E   Q  E E E E E E   E E E E E E E E
|----------------|----------------|-----------------|
|----------------|----------------|-----------------|
|----------------|----------------|-----------------|
|-7--7-7-7---5S7-|-7--7-7-7---5S7-|-7---5S7-7---5S7-|
|-7--7-7-7---5-5-|-7--7-7-7---5-5-|-7---5S7-7---5S7-|
|-5--5-5-5-0-3S5-|-5--5-5-5-0-3S5-|-5-0-3S5-5-0-3S5-|


  Gtr I
  Q  E E Q  Q    H.      Q    E E E E +E  E E E
|--------------|------------|-------------------|
|--------------|------------|-------------------|
|--------------|------------|-------------------|
|-7--7-7-7--7S=|=3-------3S=|=8-8-8-8-(8)-8-8-8-|
|-7--7-7-7--7S=|=3-------3S=|=8-8-8-8-(8)-8-8-8-|
|-5--5-5-5--5S=|=1-------1S=|=6-6-6-6-(6)-6-6-6-|


  Gtr I
  E E E E e E E E   Q  E E Q  Q    H.      Q
|-----------------|--------------|------------|
|-----------------|--------------|------------|
|-----------------|--------------|------------|
|-7-7-7-7-7---5S7-|-7--7-7-7--7S=|=3-------3S=|
|-7-7-7-7-7---5S7-|-7--7-7-7--7S=|=3-------3S=|
|-5-5-5-5-5-0-3S5-|-5--5-5-5--5S=|=1-------1S=|


  Gtr I
  E E E E +E  E E E   Q  E E E E E E   Q  E E E E E E
|-------------------|----------------|----------------|
|-------------------|----------------|----------------|
|-------------------|----------------|----------------|
|-8-8-8-8-(8)-8-8-8-|-7--7-7-7---5S7-|-7--7-7-7---5S7-|
|-8-8-8-8-(8)-8-8-8-|-7--7-7-7---5-5-|-7--7-7-7---5-5-|
|-6-6-6-6-(6)-6-6-6-|-5--5-5-5-0-3S5-|-5--5-5-5-0-3S5-|


  Gtr I
  E E E E E E E E   E E E E H      +W
|-----------------|--------------|------------|
|-----------------|--------------|------------|
|-----------------|--------------|------------|
|-7---5S7-7---5S7-|-7---5S7-7----|-(7)--------|
|-7---5S7-7---5S7-|-7---5S7-7----|-(7)--------|
|-5-0-3S5-5-0-3S5-|-5-0-3S5-5----|-(5)--------|


  Gtr I
            ~~~~~~~~~~
   H.      +Q     +H.      +E. T T   H     H
|---------------|------------------|------------|
|---------------|------------------|------------|
|---------------|------------------|------------|
|-(7)------(7)--|-(7)------(7)-7-7-|-7\---------|
|-(7)------(7)--|-(7)------(7)-5-5-|-7\---------|
|-(5)------(5)--|-(5)------(5)-5-5-|-5\---------|


Duration Legend
---------------
W - whole; 
H - half; 
Q - quarter; 
E - 8th; 
S - 16th; 
T - 32nd; 
X - 64th; 
a - acciaccatura
+ - note tied to previous; 
. - note dotted;
.. - note double dotted
Uncapitalized letters represent notes that are staccato (1/2 duration)
Irregular groupings are notated above the duration line
Duration letters will always appear directly above the note/fret number it represents the
duration for.  Duration letters with no fret number below them represent rests.  Multi-
bar rests are notated in the form Wxn, where n is the number of bars to rest for.  Low
melody durations appear below the staff

Tablature Legend
----------------
 h   - hammer-on
 p   - pull-off
 b   - bend
 pb  - pre-bend
 r   - bend release (if no number after the r, then release immediately)
 /\  - slide into or out of (from/to "nowhere")
 s   - legato slide
 S   - shift slide
<n>  - natural harmonic
[n]  - artificial harmonic
n(n) - tapped harmonic
 ~   - vibrato
 tr  - trill
 T   - tap
 TP  - trem. picking
 PM  - palm muting
\n/  - tremolo bar dip; n = amount to dip
 \n  - tremolo bar down
 n/  - tremolo bar up
/n\  - tremolo bar inverted dip
 =   - hold bend; also acts as connecting device for hammers/pulls
 <>  - volume swell (louder/softer)
 x   - on rhythm slash represents muted slash
 o   - on rhythm slash represents single note slash

Misc Legend
-----------
 |  - bar
||  - double bar
||o - repeat start
o|| - repeat end
*|  - double bar (ending)
 :  - bar (freetime)
 $  - Segno
 &  - Coda
Tempo markers - <E/E./Q/Q./H/H.> = BPM(8/16=s8/s16), where s8 = swing 8ths, s16 = swing 16ths


***************************************************************************************
***************************************************************************************





Comments


Popular Metallica tabs & chords
Damage Inc Bass Tabs
Fuel 1 Chords
Disposable Heroes Drum Tabs
For Whom The Bell Tolls Drum Tabs
And Justice For All Medley Tabs
Blackened 4 Tabs
Prince Charming 1 Tabs
The House That Jack Built Tabs
Unforgiven James Part Tabs
Creeping Death 2 Ukulele


Song lyrics



↑ Back to top | Tablatures and chords are parodies/interpretations of the original songs. You may use it for private study, scholarship, research or language learning purposes only
© 2014 AZChords.com Contact us | Privacy policy | DMCA | Add/correct tabs | Request tabs | Top 50 tabs